  0
SECTION
  2
HEADER
  9
$ACADVER
  1
AC1021
  9
$ACADMAINTVER
 70
    25
  9
$DWGCODEPAGE
  3
ANSI_1252
  9
$INSBASE
 10
0.0
 20
0.0
 30
0.0
  9
$EXTMIN
 10
-8.24
 20
-12.59
 30
0.0
  9
$EXTMAX
 10
-0.76
 20
-5.11
 30
0.0
  9
$LIMMIN
 10
0.0
 20
0.0
  9
$LIMMAX
 10
12.0
 20
9.0
  9
$ORTHOMODE
 70
     0
  9
$REGENMODE
 70
     1
  9
$FILLMODE
 70
     1
  9
$QTEXTMODE
 70
     0
  9
$MIRRTEXT
 70
     1
  9
$LTSCALE
 40
1.0
  9
$ATTMODE
 70
     1
  9
$TEXTSIZE
 40
0.2
  9
$TRACEWID
 40
0.05
  9
$TEXTSTYLE
  7
Standard
  9
$CLAYER
  8
0
  9
$CELTYPE
  6
ByLayer
  9
$CECOLOR
 62
   256
  9
$CELTSCALE
 40
1.0
  9
$DISPSILH
 70
     0
  9
$DIMSCALE
 40
1.0
  9
$DIMASZ
 40
0.18
  9
$DIMEXO
 40
0.0625
  9
$DIMDLI
 40
0.38
  9
$DIMRND
 40
0.0
  9
$DIMDLE
 40
0.0
  9
$DIMEXE
 40
0.18
  9
$DIMTP
 40
0.0
  9
$DIMTM
 40
0.0
  9
$DIMTXT
 40
0.18
  9
$DIMCEN
 40
0.09
  9
$DIMTSZ
 40
0.0
  9
$DIMTOL
 70
     0
  9
$DIMLIM
 70
     0
  9
$DIMTIH
 70
     1
  9
$DIMTOH
 70
     1
  9
$DIMSE1
 70
     0
  9
$DIMSE2
 70
     0
  9
$DIMTAD
 70
     0
  9
$DIMZIN
 70
     0
  9
$DIMBLK
  1

  9
$DIMASO
 70
     1
  9
$DIMSHO
 70
     1
  9
$DIMPOST
  1

  9
$DIMAPOST
  1

  9
$DIMALT
 70
     0
  9
$DIMALTD
 70
     2
  9
$DIMALTF
 40
25.4
  9
$DIMLFAC
 40
1.0
  9
$DIMTOFL
 70
     0
  9
$DIMTVP
 40
0.0
  9
$DIMTIX
 70
     0
  9
$DIMSOXD
 70
     0
  9
$DIMSAH
 70
     0
  9
$DIMBLK1
  1

  9
$DIMBLK2
  1

  9
$DIMSTYLE
  2
Standard
  9
$DIMCLRD
 70
     0
  9
$DIMCLRE
 70
     0
  9
$DIMCLRT
 70
     0
  9
$DIMTFAC
 40
1.0
  9
$DIMGAP
 40
0.09
  9
$DIMJUST
 70
     0
  9
$DIMSD1
 70
     0
  9
$DIMSD2
 70
     0
  9
$DIMTOLJ
 70
     1
  9
$DIMTZIN
 70
     0
  9
$DIMALTZ
 70
     0
  9
$DIMALTTZ
 70
     0
  9
$DIMUPT
 70
     0
  9
$DIMDEC
 70
     4
  9
$DIMTDEC
 70
     4
  9
$DIMALTU
 70
     2
  9
$DIMALTTD
 70
     2
  9
$DIMTXSTY
  7
Standard
  9
$DIMAUNIT
 70
     0
  9
$DIMADEC
 70
     0
  9
$DIMALTRND
 40
0.0
  9
$DIMAZIN
 70
     0
  9
$DIMDSEP
 70
    46
  9
$DIMATFIT
 70
     3
  9
$DIMFRAC
 70
     0
  9
$DIMLDRBLK
  1

  9
$DIMLUNIT
 70
     2
  9
$DIMLWD
 70
    -2
  9
$DIMLWE
 70
    -2
  9
$DIMTMOVE
 70
     0
  9
$DIMFXL
 40
1.0
  9
$DIMFXLON
 70
     0
  9
$DIMJOGANG
 40
0.7853981633974483
  9
$DIMTFILL
 70
     0
  9
$DIMTFILLCLR
 70
     0
  9
$DIMARCSYM
 70
     0
  9
$DIMLTYPE
  6

  9
$DIMLTEX1
  6

  9
$DIMLTEX2
  6

  9
$LUNITS
 70
     2
  9
$LUPREC
 70
     4
  9
$SKETCHINC
 40
0.1
  9
$FILLETRAD
 40
0.5
  9
$AUNITS
 70
     0
  9
$AUPREC
 70
     0
  9
$MENU
  1
.
  9
$ELEVATION
 40
0.0
  9
$PELEVATION
 40
0.0
  9
$THICKNESS
 40
0.0
  9
$LIMCHECK
 70
     0
  9
$CHAMFERA
 40
0.5
  9
$CHAMFERB
 40
0.5
  9
$CHAMFERC
 40
1.0
  9
$CHAMFERD
 40
0.0
  9
$SKPOLY
 70
     0
  9
$TDCREATE
 40
2456568.591360845
  9
$TDUCREATE
 40
2456568.549694178
  9
$TDUPDATE
 40
2456568.591360856
  9
$TDUUPDATE
 40
2456568.54969419
  9
$TDINDWG
 40
0.0000000116
  9
$TDUSRTIMER
 40
0.0000000116
  9
$USRTIMER
 70
     1
  9
$ANGBASE
 50
0.0
  9
$ANGDIR
 70
     0
  9
$PDMODE
 70
     0
  9
$PDSIZE
 40
0.0
  9
$PLINEWID
 40
0.0
  9
$SPLFRAME
 70
     0
  9
$SPLINETYPE
 70
     6
  9
$SPLINESEGS
 70
     8
  9
$HANDSEED
  5
D6
  9
$SURFTAB1
 70
     6
  9
$SURFTAB2
 70
     6
  9
$SURFTYPE
 70
     6
  9
$SURFU
 70
     6
  9
$SURFV
 70
     6
  9
$UCSBASE
  2

  9
$UCSNAME
  2

  9
$UCSORG
 10
0.0
 20
0.0
 30
0.0
  9
$UCSXDIR
 10
1.0
 20
0.0
 30
0.0
  9
$UCSYDIR
 10
0.0
 20
1.0
 30
0.0
  9
$UCSORTHOREF
  2

  9
$UCSORTHOVIEW
 70
     0
  9
$UCSORGTOP
 10
0.0
 20
0.0
 30
0.0
  9
$UCSORGBOTTOM
 10
0.0
 20
0.0
 30
0.0
  9
$UCSORGLEFT
 10
0.0
 20
0.0
 30
0.0
  9
$UCSORGRIGHT
 10
0.0
 20
0.0
 30
0.0
  9
$UCSORGFRONT
 10
0.0
 20
0.0
 30
0.0
  9
$UCSORGBACK
 10
0.0
 20
0.0
 30
0.0
  9
$PUCSBASE
  2

  9
$PUCSNAME
  2

  9
$PUCSORG
 10
0.0
 20
0.0
 30
0.0
  9
$PUCSXDIR
 10
1.0
 20
0.0
 30
0.0
  9
$PUCSYDIR
 10
0.0
 20
1.0
 30
0.0
  9
$PUCSORTHOREF
  2

  9
$PUCSORTHOVIEW
 70
     0
  9
$PUCSORGTOP
 10
0.0
 20
0.0
 30
0.0
  9
$PUCSORGBOTTOM
 10
0.0
 20
0.0
 30
0.0
  9
$PUCSORGLEFT
 10
0.0
 20
0.0
 30
0.0
  9
$PUCSORGRIGHT
 10
0.0
 20
0.0
 30
0.0
  9
$PUCSORGFRONT
 10
0.0
 20
0.0
 30
0.0
  9
$PUCSORGBACK
 10
0.0
 20
0.0
 30
0.0
  9
$USERI1
 70
     0
  9
$USERI2
 70
     0
  9
$USERI3
 70
     0
  9
$USERI4
 70
     0
  9
$USERI5
 70
     0
  9
$USERR1
 40
0.0
  9
$USERR2
 40
0.0
  9
$USERR3
 40
0.0
  9
$USERR4
 40
0.0
  9
$USERR5
 40
0.0
  9
$WORLDVIEW
 70
     1
  9
$SHADEDGE
 70
     3
  9
$SHADEDIF
 70
    70
  9
$TILEMODE
 70
     1
  9
$MAXACTVP
 70
    64
  9
$PINSBASE
 10
0.0
 20
0.0
 30
0.0
  9
$PLIMCHECK
 70
     0
  9
$PEXTMIN
 10
1.000000000000000E+20
 20
1.000000000000000E+20
 30
1.000000000000000E+20
  9
$PEXTMAX
 10
-1.000000000000000E+20
 20
-1.000000000000000E+20
 30
-1.000000000000000E+20
  9
$PLIMMIN
 10
0.0
 20
0.0
  9
$PLIMMAX
 10
12.0
 20
9.0
  9
$UNITMODE
 70
     0
  9
$VISRETAIN
 70
     1
  9
$PLINEGEN
 70
     0
  9
$PSLTSCALE
 70
     1
  9
$TREEDEPTH
 70
  3020
  9
$CMLSTYLE
  2
Standard
  9
$CMLJUST
 70
     0
  9
$CMLSCALE
 40
1.0
  9
$PROXYGRAPHICS
 70
     1
  9
$MEASUREMENT
 70
     0
  9
$CELWEIGHT
370
    -1
  9
$ENDCAPS
280
     0
  9
$JOINSTYLE
280
     0
  9
$LWDISPLAY
290
     0
  9
$INSUNITS
 70
     5
  9
$HYPERLINKBASE
  1

  9
$STYLESHEET
  1

  9
$XEDIT
290
     1
  9
$CEPSNTYPE
380
     0
  9
$PSTYLEMODE
290
     1
  9
$FINGERPRINTGUID
  2
{5F3C77BF-6B74-4812-AC04-52D6FF524443}
  9
$VERSIONGUID
  2
{FAEB1C32-E019-11D5-929B-00C0DF256EC4}
  9
$EXTNAMES
290
     1
  9
$PSVPSCALE
 40
0.0
  9
$OLESTARTUP
290
     0
  9
$SORTENTS
280
   127
  9
$INDEXCTL
280
     0
  9
$HIDETEXT
280
     1
  9
$XCLIPFRAME
290
     0
  9
$HALOGAP
280
     0
  9
$OBSCOLOR
 70
   257
  9
$OBSLTYPE
280
     0
  9
$INTERSECTIONDISPLAY
280
     0
  9
$INTERSECTIONCOLOR
 70
   257
  9
$DIMASSOC
280
     2
  9
$PROJECTNAME
  1

  9
$CAMERADISPLAY
290
     0
  9
$LENSLENGTH
 40
50.0
  9
$CAMERAHEIGHT
 40
0.0
  9
$STEPSPERSEC
 40
2.0
  9
$STEPSIZE
 40
6.0
  9
$3DDWFPREC
 40
2.0
  9
$PSOLWIDTH
 40
0.25
  9
$PSOLHEIGHT
 40
4.0
  9
$LOFTANG1
 40
1.570796326794897
  9
$LOFTANG2
 40
1.570796326794897
  9
$LOFTMAG1
 40
0.0
  9
$LOFTMAG2
 40
0.0
  9
$LOFTPARAM
 70
     7
  9
$LOFTNORMALS
280
     1
  9
$LATITUDE
 40
37.795
  9
$LONGITUDE
 40
-122.394
  9
$NORTHDIRECTION
 40
0.0
  9
$TIMEZONE
 70
 -8000
  9
$LIGHTGLYPHDISPLAY
280
     1
  9
$TILEMODELIGHTSYNCH
280
     1
  9
$SOLIDHIST
280
     1
  9
$SHOWHIST
280
     1
  9
$DWFFRAME
280
     2
  9
$DGNFRAME
280
     2
  9
$REALWORLDSCALE
290
     1
  9
$INTERFERECOLOR
 62
   256
  9
$CSHADOW
280
     0
  9
$SHADOWPLANELOCATION
 40
0.0
  0
ENDSEC
  0
SECTION
  2
CLASSES
  0
CLASS
  1
ACDBDICTIONARYWDFLT
  2
AcDbDictionaryWithDefault
  3
ObjectDBX Classes
 90
        0
 91
        4
280
     0
281
     0
  0
CLASS
  1
VISUALSTYLE
  2
AcDbVisualStyle
  3
ObjectDBX Classes
 90
     4095
 91
        4
280
     0
281
     0
  0
CLASS
  1
MATERIAL
  2
AcDbMaterial
  3
ObjectDBX Classes
 90
     1153
 91
        4
280
     0
281
     0
  0
ENDSEC
  0
SECTION
  2
TABLES
  0
TABLE
  2
VPORT
  5
8
330
0
100
AcDbSymbolTable
 70
     1
  0
VPORT
  5
29
330
8
100
AcDbSymbolTableRecord
100
AcDbViewportTableRecord
  2
*Active
 70
     0
 10
0.0
 20
0.0
 11
1.0
 21
1.0
 12
10.42990654205607
 22
4.5
 13
0.0
 23
0.0
 14
0.5
 24
0.5
 15
0.5
 25
0.5
 16
0.0
 26
0.0
 36
1.0
 17
0.0
 27
0.0
 37
0.0
 40
9.0
 41
1.972972972850329
 42
50.0
 43
0.0
 44
0.0
 50
0.0
 51
0.0
 71
     0
 72
   100
 73
     1
 74
     3
 75
     0
 76
     0
 77
     0
 78
     0
281
     0
 65
     1
110
0.0
120
0.0
130
0.0
111
1.0
121
0.0
131
0.0
112
0.0
122
1.0
132
0.0
 79
     0
146
0.0
 60
     3
 61
     5
292
     1
282
     1
141
0.0
142
0.0
 63
   250
  0
ENDTAB
  0
TABLE
  2
LTYPE
  5
5
330
0
100
AcDbSymbolTable
 70
     1
  0
LTYPE
  5
14
330
5
100
AcDbSymbolTableRecord
100
AcDbLinetypeTableRecord
  2
ByBlock
 70
     0
  3

 72
    65
 73
     0
 40
0.0
  0
LTYPE
  5
15
330
5
100
AcDbSymbolTableRecord
100
AcDbLinetypeTableRecord
  2
ByLayer
 70
     0
  3

 72
    65
 73
     0
 40
0.0
  0
LTYPE
  5
16
330
5
100
AcDbSymbolTableRecord
100
AcDbLinetypeTableRecord
  2
Continuous
 70
     0
  3
Solid line
 72
    65
 73
     0
 40
0.0
  0
ENDTAB
  0
TABLE
  2
LAYER
  5
2
330
0
100
AcDbSymbolTable
 70
     2
  0
LAYER
  5
10
330
2
100
AcDbSymbolTableRecord
100
AcDbLayerTableRecord
  2
0
 70
     0
 62
     7
  6
Continuous
370
    -3
390
F
347
3E
  0
LAYER
  5
40
330
2
100
AcDbSymbolTableRecord
100
AcDbLayerTableRecord
  2
Layer 1
 70
     0
 62
     7
  6
Continuous
370
    -3
390
F
347
3E
  0
ENDTAB
  0
TABLE
  2
STYLE
  5
3
330
0
100
AcDbSymbolTable
 70
     1
  0
STYLE
  5
11
330
3
100
AcDbSymbolTableRecord
100
AcDbTextStyleTableRecord
  2
Standard
 70
     0
 40
0.0
 41
1.0
 50
0.0
 71
     0
 42
0.2
  3
txt
  4

  0
ENDTAB
  0
TABLE
  2
VIEW
  5
6
330
0
100
AcDbSymbolTable
 70
     0
  0
ENDTAB
  0
TABLE
  2
UCS
  5
7
330
0
100
AcDbSymbolTable
 70
     0
  0
ENDTAB
  0
TABLE
  2
APPID
  5
9
330
0
100
AcDbSymbolTable
 70
     2
  0
APPID
  5
12
330
9
100
AcDbSymbolTableRecord
100
AcDbRegAppTableRecord
  2
ACAD
 70
     0
  0
APPID
  5
3F
330
9
100
AcDbSymbolTableRecord
100
AcDbRegAppTableRecord
  2
ODA
 70
     0
  0
ENDTAB
  0
TABLE
  2
DIMSTYLE
  5
A
330
0
100
AcDbSymbolTable
 70
     1
100
AcDbDimStyleTable
  0
DIMSTYLE
105
27
330
A
100
AcDbSymbolTableRecord
100
AcDbDimStyleTableRecord
  2
Standard
 70
     0
340
11
  0
ENDTAB
  0
TABLE
  2
BLOCK_RECORD
  5
1
330
0
100
AcDbSymbolTable
 70
     1
  0
BLOCK_RECORD
  5
1F
330
1
100
AcDbSymbolTableRecord
100
AcDbBlockTableRecord
  2
*Model_Space
340
22
 70
     0
280
     1
281
     0
  0
BLOCK_RECORD
  5
1B
330
1
100
AcDbSymbolTableRecord
100
AcDbBlockTableRecord
  2
*Paper_Space
340
1E
 70
     0
280
     1
281
     0
  0
BLOCK_RECORD
  5
23
330
1
100
AcDbSymbolTableRecord
100
AcDbBlockTableRecord
  2
*Paper_Space0
340
26
 70
     0
280
     1
281
     0
  0
ENDTAB
  0
ENDSEC
  0
SECTION
  2
BLOCKS
  0
BLOCK
  5
20
330
1F
100
AcDbEntity
  8
0
100
AcDbBlockBegin
  2
*Model_Space
 70
     0
 10
0.0
 20
0.0
 30
0.0
  3
*Model_Space
  1

  0
ENDBLK
  5
21
330
1F
100
AcDbEntity
  8
0
100
AcDbBlockEnd
  0
BLOCK
  5
1C
330
1B
100
AcDbEntity
 67
     1
  8
0
100
AcDbBlockBegin
  2
*Paper_Space
 70
     0
 10
0.0
 20
0.0
 30
0.0
  3
*Paper_Space
  1

  0
ENDBLK
  5
1D
330
1B
100
AcDbEntity
 67
     1
  8
0
100
AcDbBlockEnd
  0
BLOCK
  5
24
330
23
100
AcDbEntity
  8
0
100
AcDbBlockBegin
  2
*Paper_Space0
 70
     0
 10
0.0
 20
0.0
 30
0.0
  3
*Paper_Space0
  1

  0
ENDBLK
  5
25
330
23
100
AcDbEntity
  8
0
100
AcDbBlockEnd
  0
ENDSEC
  0
SECTION
  2
ENTITIES
  0
ELLIPSE
  5
41
330
1F
100
AcDbEntity
  8
Layer 1
 62
   250
370
    20
100
AcDbEllipse
 10
-4.5
 20
-8.85
 30
0.0
 11
0.0
 21
3.73
 31
0.0
210
0.0
220
0.0
230
1.0
 40
1.0
 41
0.0
 42
6.283185307179586
  0
ELLIPSE
  5
42
330
1F
100
AcDbEntity
  8
Layer 1
 62
    30
370
    20
100
AcDbEllipse
 10
-4.5
 20
-8.85
 30
0.0
 11
0.0
 21
0.01
 31
0.0
210
0.0
220
0.0
230
1.0
 40
1.0
 41
0.0
 42
6.283185307179586
  0
ELLIPSE
  5
43
330
1F
100
AcDbEntity
  8
Layer 1
 62
   250
370
     9
100
AcDbEllipse
 10
-6.5
 20
-6.42
 30
0.0
 11
0.0
 21
0.1
 31
0.0
210
0.0
220
0.0
230
1.0
 40
1.0
 41
0.0
 42
6.283185307179586
  0
ELLIPSE
  5
44
330
1F
100
AcDbEntity
  8
Layer 1
 62
   250
370
     9
100
AcDbEllipse
 10
-2.5
 20
-6.42
 30
0.0
 11
0.0
 21
0.1
 31
0.0
210
0.0
220
0.0
230
1.0
 40
1.0
 41
0.0
 42
6.283185307179586
  0
ELLIPSE
  5
45
330
1F
100
AcDbEntity
  8
Layer 1
 62
   250
370
     9
100
AcDbEllipse
 10
-4.5
 20
-12.07
 30
0.0
 11
0.0
 21
0.1
 31
0.0
210
0.0
220
0.0
230
1.0
 40
1.0
 41
0.0
 42
6.283185307179586
  0
ELLIPSE
  5
46
330
1F
100
AcDbEntity
  8
Layer 1
 62
   250
370
    20
100
AcDbEllipse
 10
-5.92998
 20
-5.98999
 30
0.0
 11
0.0
 21
0.15
 31
0.0
210
0.0
220
0.0
230
1.0
 40
1.0
 41
0.0
 42
6.283185307179586
  0
ELLIPSE
  5
47
330
1F
100
AcDbEntity
  8
Layer 1
 62
   250
370
    20
100
AcDbEllipse
 10
-4.5
 20
-5.98999
 30
0.0
 11
0.0
 21
0.15
 31
0.0
210
0.0
220
0.0
230
1.0
 40
1.0
 41
0.0
 42
6.283185307179586
  0
ELLIPSE
  5
48
330
1F
100
AcDbEntity
  8
Layer 1
 62
   250
370
    20
100
AcDbEllipse
 10
-3.07
 20
-5.98999
 30
0.0
 11
0.0
 21
0.15
 31
0.0
210
0.0
220
0.0
230
1.0
 40
1.0
 41
0.0
 42
6.283185307179586
  0
ELLIPSE
  5
49
330
1F
100
AcDbEntity
  8
Layer 1
 62
   250
370
    20
100
AcDbEllipse
 10
-7.36
 20
-7.42002
 30
0.0
 11
0.0
 21
0.15
 31
0.0
210
0.0
220
0.0
230
1.0
 40
1.0
 41
0.0
 42
6.283185307179586
  0
ELLIPSE
  5
4A
330
1F
100
AcDbEntity
  8
Layer 1
 62
   250
370
    20
100
AcDbEllipse
 10
-5.92998
 20
-7.42002
 30
0.0
 11
0.0
 21
0.15
 31
0.0
210
0.0
220
0.0
230
1.0
 40
1.0
 41
0.0
 42
6.283185307179586
  0
ELLIPSE
  5
4B
330
1F
100
AcDbEntity
  8
Layer 1
 62
   250
370
    20
100
AcDbEllipse
 10
-4.5
 20
-7.42002
 30
0.0
 11
0.0
 21
0.15
 31
0.0
210
0.0
220
0.0
230
1.0
 40
1.0
 41
0.0
 42
6.283185307179586
  0
ELLIPSE
  5
4C
330
1F
100
AcDbEntity
  8
Layer 1
 62
   250
370
    20
100
AcDbEllipse
 10
-3.07
 20
-7.42002
 30
0.0
 11
0.0
 21
0.15
 31
0.0
210
0.0
220
0.0
230
1.0
 40
1.0
 41
0.0
 42
6.283185307179586
  0
ELLIPSE
  5
4D
330
1F
100
AcDbEntity
  8
Layer 1
 62
   250
370
    20
100
AcDbEllipse
 10
-1.63996
 20
-7.42002
 30
0.0
 11
0.0
 21
0.15
 31
0.0
210
0.0
220
0.0
230
1.0
 40
1.0
 41
0.0
 42
6.283185307179586
  0
ELLIPSE
  5
4E
330
1F
100
AcDbEntity
  8
Layer 1
 62
   250
370
    20
100
AcDbEllipse
 10
-7.36
 20
-8.85
 30
0.0
 11
0.0
 21
0.15
 31
0.0
210
0.0
220
0.0
230
1.0
 40
1.0
 41
0.0
 42
6.283185307179586
  0
ELLIPSE
  5
4F
330
1F
100
AcDbEntity
  8
Layer 1
 62
   250
370
    20
100
AcDbEllipse
 10
-5.92998
 20
-8.85
 30
0.0
 11
0.0
 21
0.15
 31
0.0
210
0.0
220
0.0
230
1.0
 40
1.0
 41
0.0
 42
6.283185307179586
  0
ELLIPSE
  5
50
330
1F
100
AcDbEntity
  8
Layer 1
 62
   250
370
    20
100
AcDbEllipse
 10
-4.5
 20
-8.85
 30
0.0
 11
0.0
 21
0.15
 31
0.0
210
0.0
220
0.0
230
1.0
 40
1.0
 41
0.0
 42
6.283185307179586
  0
ELLIPSE
  5
51
330
1F
100
AcDbEntity
  8
Layer 1
 62
   250
370
    20
100
AcDbEllipse
 10
-3.07
 20
-8.85
 30
0.0
 11
0.0
 21
0.15
 31
0.0
210
0.0
220
0.0
230
1.0
 40
1.0
 41
0.0
 42
6.283185307179586
  0
ELLIPSE
  5
52
330
1F
100
AcDbEntity
  8
Layer 1
 62
   250
370
    20
100
AcDbEllipse
 10
-1.63996
 20
-8.85
 30
0.0
 11
0.0
 21
0.15
 31
0.0
210
0.0
220
0.0
230
1.0
 40
1.0
 41
0.0
 42
6.283185307179586
  0
ELLIPSE
  5
53
330
1F
100
AcDbEntity
  8
Layer 1
 62
   250
370
    20
100
AcDbEllipse
 10
-7.36
 20
-10.27998
 30
0.0
 11
0.0
 21
0.15
 31
0.0
210
0.0
220
0.0
230
1.0
 40
1.0
 41
0.0
 42
6.283185307179586
  0
ELLIPSE
  5
54
330
1F
100
AcDbEntity
  8
Layer 1
 62
   250
370
    20
100
AcDbEllipse
 10
-5.92998
 20
-10.27998
 30
0.0
 11
0.0
 21
0.15
 31
0.0
210
0.0
220
0.0
230
1.0
 40
1.0
 41
0.0
 42
6.283185307179586
  0
ELLIPSE
  5
55
330
1F
100
AcDbEntity
  8
Layer 1
 62
   250
370
    20
100
AcDbEllipse
 10
-4.5
 20
-10.27998
 30
0.0
 11
0.0
 21
0.15
 31
0.0
210
0.0
220
0.0
230
1.0
 40
1.0
 41
0.0
 42
6.283185307179586
  0
ELLIPSE
  5
56
330
1F
100
AcDbEntity
  8
Layer 1
 62
   250
370
    20
100
AcDbEllipse
 10
-3.07
 20
-10.27998
 30
0.0
 11
0.0
 21
0.15
 31
0.0
210
0.0
220
0.0
230
1.0
 40
1.0
 41
0.0
 42
6.283185307179586
  0
ELLIPSE
  5
57
330
1F
100
AcDbEntity
  8
Layer 1
 62
   250
370
    20
100
AcDbEllipse
 10
-1.63996
 20
-10.27998
 30
0.0
 11
0.0
 21
0.15
 31
0.0
210
0.0
220
0.0
230
1.0
 40
1.0
 41
0.0
 42
6.283185307179586
  0
ELLIPSE
  5
58
330
1F
100
AcDbEntity
  8
Layer 1
 62
   250
370
    20
100
AcDbEllipse
 10
-5.92998
 20
-11.70998
 30
0.0
 11
0.0
 21
0.15
 31
0.0
210
0.0
220
0.0
230
1.0
 40
1.0
 41
0.0
 42
6.283185307179586
  0
ELLIPSE
  5
59
330
1F
100
AcDbEntity
  8
Layer 1
 62
   250
370
    20
100
AcDbEllipse
 10
-4.5
 20
-11.70998
 30
0.0
 11
0.0
 21
0.15
 31
0.0
210
0.0
220
0.0
230
1.0
 40
1.0
 41
0.0
 42
6.283185307179586
  0
ELLIPSE
  5
5A
330
1F
100
AcDbEntity
  8
Layer 1
 62
   250
370
    20
100
AcDbEllipse
 10
-3.07
 20
-11.70998
 30
0.0
 11
0.0
 21
0.15
 31
0.0
210
0.0
220
0.0
230
1.0
 40
1.0
 41
0.0
 42
6.283185307179586
  0
SPLINE
  5
5B
330
1F
100
AcDbEntity
  8
Layer 1
 62
   230
100
AcDbSpline
210
0.0
220
0.0
230
1.0
 70
    11
 71
     3
 72
    40
 73
    36
 74
     0
 42
0.0000000001
 43
0.0000000001
 40
0.0
 40
0.0
 40
0.0
 40
0.0
 40
0.1
 40
0.1
 40
0.1
 40
0.1
 40
0.2
 40
0.2
 40
0.2
 40
0.2
 40
0.3
 40
0.3
 40
0.3
 40
0.3
 40
0.4
 40
0.4
 40
0.4
 40
0.4
 40
0.5
 40
0.5
 40
0.5
 40
0.5
 40
0.6
 40
0.6
 40
0.6
 40
0.6
 40
0.7
 40
0.7
 40
0.7
 40
0.7
 40
0.8
 40
0.8
 40
0.8
 40
0.8
 40
1.0
 40
1.0
 40
1.0
 40
1.0
 10
-5.69056
 20
-6.26607
 30
0.0
 10
-5.69056
 20
-6.26607
 30
0.0
 10
-5.70915
 20
-6.26607
 30
0.0
 10
-5.70915
 20
-6.26607
 30
0.0
 10
-5.70915
 20
-6.26607
 30
0.0
 10
-5.70915
 20
-6.26607
 30
0.0
 10
-5.70915
 20
-6.14754
 30
0.0
 10
-5.70915
 20
-6.14754
 30
0.0
 10
-5.70915
 20
-6.14754
 30
0.0
 10
-5.71363
 20
-6.15181
 30
0.0
 10
-5.71948
 20
-6.15608
 30
0.0
 10
-5.72675
 20
-6.16035
 30
0.0
 10
-5.72675
 20
-6.16035
 30
0.0
 10
-5.73405
 20
-6.16461
 30
0.0
 10
-5.74058
 20
-6.16782
 30
0.0
 10
-5.74636
 20
-6.16994
 30
0.0
 10
-5.74636
 20
-6.16994
 30
0.0
 10
-5.74636
 20
-6.16994
 30
0.0
 10
-5.74636
 20
-6.15199
 30
0.0
 10
-5.74636
 20
-6.15199
 30
0.0
 10
-5.74636
 20
-6.15199
 30
0.0
 10
-5.73596
 20
-6.14708
 30
0.0
 10
-5.72686
 20
-6.14116
 30
0.0
 10
-5.71906
 20
-6.13421
 30
0.0
 10
-5.71906
 20
-6.13421
 30
0.0
 10
-5.7113
 20
-6.12722
 30
0.0
 10
-5.70576
 20
-6.12048
 30
0.0
 10
-5.70252
 20
-6.11392
 30
0.0
 10
-5.70252
 20
-6.11392
 30
0.0
 10
-5.70252
 20
-6.11392
 30
0.0
 10
-5.69056
 20
-6.11392
 30
0.0
 10
-5.69056
 20
-6.11392
 30
0.0
 10
-5.69056
 20
-6.11392
 30
0.0
 10
-5.69056
 20
-6.11392
 30
0.0
 10
-5.69056
 20
-6.26607
 30
0.0
 10
-5.69056
 20
-6.26607
 30
0.0
  0
SPLINE
  5
5C
330
1F
100
AcDbEntity
  8
Layer 1
 62
   230
100
AcDbSpline
210
0.0
220
0.0
230
1.0
 70
    11
 71
     3
 72
    92
 73
    88
 74
     0
 42
0.0000000001
 43
0.0000000001
 40
0.0
 40
0.0
 40
0.0
 40
0.0
 40
0.0434782608695652
 40
0.0434782608695652
 40
0.0434782608695652
 40
0.0434782608695652
 40
0.0869565217391304
 40
0.0869565217391304
 40
0.0869565217391304
 40
0.0869565217391304
 40
0.1304347826086956
 40
0.1304347826086956
 40
0.1304347826086956
 40
0.1304347826086956
 40
0.1739130434782609
 40
0.1739130434782609
 40
0.1739130434782609
 40
0.1739130434782609
 40
0.2173913043478261
 40
0.2173913043478261
 40
0.2173913043478261
 40
0.2173913043478261
 40
0.2608695652173913
 40
0.2608695652173913
 40
0.2608695652173913
 40
0.2608695652173913
 40
0.3043478260869565
 40
0.3043478260869565
 40
0.3043478260869565
 40
0.3043478260869565
 40
0.3478260869565217
 40
0.3478260869565217
 40
0.3478260869565217
 40
0.3478260869565217
 40
0.391304347826087
 40
0.391304347826087
 40
0.391304347826087
 40
0.391304347826087
 40
0.4347826086956522
 40
0.4347826086956522
 40
0.4347826086956522
 40
0.4347826086956522
 40
0.4782608695652174
 40
0.4782608695652174
 40
0.4782608695652174
 40
0.4782608695652174
 40
0.5217391304347826
 40
0.5217391304347826
 40
0.5217391304347826
 40
0.5217391304347826
 40
0.5652173913043478
 40
0.5652173913043478
 40
0.5652173913043478
 40
0.5652173913043478
 40
0.6086956521739131
 40
0.6086956521739131
 40
0.6086956521739131
 40
0.6086956521739131
 40
0.6521739130434783
 40
0.6521739130434783
 40
0.6521739130434783
 40
0.6521739130434783
 40
0.6956521739130435
 40
0.6956521739130435
 40
0.6956521739130435
 40
0.6956521739130435
 40
0.7391304347826086
 40
0.7391304347826086
 40
0.7391304347826086
 40
0.7391304347826086
 40
0.782608695652174
 40
0.782608695652174
 40
0.782608695652174
 40
0.782608695652174
 40
0.8260869565217391
 40
0.8260869565217391
 40
0.8260869565217391
 40
0.8260869565217391
 40
0.8695652173913043
 40
0.8695652173913043
 40
0.8695652173913043
 40
0.8695652173913043
 40
0.9130434782608695
 40
0.9130434782608695
 40
0.9130434782608695
 40
0.9130434782608695
 40
1.0
 40
1.0
 40
1.0
 40
1.0
 10
-4.24672
 20
-6.24818
 30
0.0
 10
-4.24672
 20
-6.24818
 30
0.0
 10
-4.24672
 20
-6.26607
 30
0.0
 10
-4.24672
 20
-6.26607
 30
0.0
 10
-4.24672
 20
-6.26607
 30
0.0
 10
-4.24672
 20
-6.26607
 30
0.0
 10
-4.34687
 20
-6.26607
 30
0.0
 10
-4.34687
 20
-6.26607
 30
0.0
 10
-4.34687
 20
-6.26607
 30
0.0
 10
-4.34701
 20
-6.26159
 30
0.0
 10
-4.34631
 20
-6.25729
 30
0.0
 10
-4.34472
 20
-6.25316
 30
0.0
 10
-4.34472
 20
-6.25316
 30
0.0
 10
-4.34218
 20
-6.24632
 30
0.0
 10
-4.33809
 20
-6.23961
 30
0.0
 10
-4.33248
 20
-6.23298
 30
0.0
 10
-4.33248
 20
-6.23298
 30
0.0
 10
-4.32683
 20
-6.22638
 30
0.0
 10
-4.31872
 20
-6.21873
 30
0.0
 10
-4.30814
 20
-6.21005
 30
0.0
 10
-4.30814
 20
-6.21005
 30
0.0
 10
-4.29166
 20
-6.19654
 30
0.0
 10
-4.28051
 20
-6.18585
 30
0.0
 10
-4.27473
 20
-6.17795
 30
0.0
 10
-4.27473
 20
-6.17795
 30
0.0
 10
-4.26894
 20
-6.17008
 30
0.0
 10
-4.26605
 20
-6.1626
 30
0.0
 10
-4.26605
 20
-6.15558
 30
0.0
 10
-4.26605
 20
-6.15558
 30
0.0
 10
-4.26605
 20
-6.14821
 30
0.0
 10
-4.2687
 20
-6.142
 30
0.0
 10
-4.27395
 20
-6.13692
 30
0.0
 10
-4.27395
 20
-6.13692
 30
0.0
 10
-4.27924
 20
-6.13188
 30
0.0
 10
-4.28612
 20
-6.12934
 30
0.0
 10
-4.29459
 20
-6.12934
 30
0.0
 10
-4.29459
 20
-6.12934
 30
0.0
 10
-4.30355
 20
-6.12934
 30
0.0
 10
-4.31071
 20
-6.13202
 30
0.0
 10
-4.31607
 20
-6.13742
 30
0.0
 10
-4.31607
 20
-6.13742
 30
0.0
 10
-4.32147
 20
-6.14278
 30
0.0
 10
-4.32419
 20
-6.15022
 30
0.0
 10
-4.32426
 20
-6.15971
 30
0.0
 10
-4.32426
 20
-6.15971
 30
0.0
 10
-4.32426
 20
-6.15971
 30
0.0
 10
-4.34338
 20
-6.15777
 30
0.0
 10
-4.34338
 20
-6.15777
 30
0.0
 10
-4.34338
 20
-6.15777
 30
0.0
 10
-4.34207
 20
-6.14348
 30
0.0
 10
-4.33713
 20
-6.13262
 30
0.0
 10
-4.3286
 20
-6.12514
 30
0.0
 10
-4.3286
 20
-6.12514
 30
0.0
 10
-4.32006
 20
-6.11766
 30
0.0
 10
-4.30856
 20
-6.11392
 30
0.0
 10
-4.29417
 20
-6.11392
 30
0.0
 10
-4.29417
 20
-6.11392
 30
0.0
 10
-4.27963
 20
-6.11392
 30
0.0
 10
-4.26813
 20
-6.11798
 30
0.0
 10
-4.25967
 20
-6.12602
 30
0.0
 10
-4.25967
 20
-6.12602
 30
0.0
 10
-4.25116
 20
-6.1341
 30
0.0
 10
-4.24693
 20
-6.14408
 30
0.0
 10
-4.24693
 20
-6.15601
 30
0.0
 10
-4.24693
 20
-6.15601
 30
0.0
 10
-4.24693
 20
-6.16207
 30
0.0
 10
-4.24817
 20
-6.16804
 30
0.0
 10
-4.25067
 20
-6.17389
 30
0.0
 10
-4.25067
 20
-6.17389
 30
0.0
 10
-4.25314
 20
-6.17975
 30
0.0
 10
-4.25727
 20
-6.18592
 30
0.0
 10
-4.26302
 20
-6.19238
 30
0.0
 10
-4.26302
 20
-6.19238
 30
0.0
 10
-4.26877
 20
-6.19887
 30
0.0
 10
-4.27833
 20
-6.20776
 30
0.0
 10
-4.2917
 20
-6.21905
 30
0.0
 10
-4.2917
 20
-6.21905
 30
0.0
 10
-4.30284
 20
-6.22843
 30
0.0
 10
-4.31001
 20
-6.23478
 30
0.0
 10
-4.31318
 20
-6.23813
 30
0.0
 10
-4.31318
 20
-6.23813
 30
0.0
 10
-4.31636
 20
-6.24145
 30
0.0
 10
-4.31897
 20
-6.2448
 30
0.0
 10
-4.32105
 20
-6.24818
 30
0.0
 10
-4.32105
 20
-6.24818
 30
0.0
 10
-4.32105
 20
-6.24818
 30
0.0
 10
-4.24672
 20
-6.24818
 30
0.0
 10
-4.24672
 20
-6.24818
 30
0.0
  0
SPLINE
  5
5D
330
1F
100
AcDbEntity
  8
Layer 1
 62
   230
100
AcDbSpline
210
0.0
220
0.0
230
1.0
 70
    11
 71
     3
 72
   124
 73
   120
 74
     0
 42
0.0000000001
 43
0.0000000001
 40
0.0
 40
0.0
 40
0.0
 40
0.0
 40
0.032258064516129
 40
0.032258064516129
 40
0.032258064516129
 40
0.032258064516129
 40
0.0645161290322581
 40
0.0645161290322581
 40
0.0645161290322581
 40
0.0645161290322581
 40
0.0967741935483871
 40
0.0967741935483871
 40
0.0967741935483871
 40
0.0967741935483871
 40
0.1290322580645161
 40
0.1290322580645161
 40
0.1290322580645161
 40
0.1290322580645161
 40
0.1612903225806452
 40
0.1612903225806452
 40
0.1612903225806452
 40
0.1612903225806452
 40
0.1935483870967742
 40
0.1935483870967742
 40
0.1935483870967742
 40
0.1935483870967742
 40
0.2258064516129032
 40
0.2258064516129032
 40
0.2258064516129032
 40
0.2258064516129032
 40
0.2580645161290323
 40
0.2580645161290323
 40
0.2580645161290323
 40
0.2580645161290323
 40
0.2903225806451613
 40
0.2903225806451613
 40
0.2903225806451613
 40
0.2903225806451613
 40
0.3225806451612903
 40
0.3225806451612903
 40
0.3225806451612903
 40
0.3225806451612903
 40
0.3548387096774194
 40
0.3548387096774194
 40
0.3548387096774194
 40
0.3548387096774194
 40
0.3870967741935484
 40
0.3870967741935484
 40
0.3870967741935484
 40
0.3870967741935484
 40
0.4193548387096774
 40
0.4193548387096774
 40
0.4193548387096774
 40
0.4193548387096774
 40
0.4516129032258064
 40
0.4516129032258064
 40
0.4516129032258064
 40
0.4516129032258064
 40
0.4838709677419355
 40
0.4838709677419355
 40
0.4838709677419355
 40
0.4838709677419355
 40
0.5161290322580645
 40
0.5161290322580645
 40
0.5161290322580645
 40
0.5161290322580645
 40
0.5483870967741935
 40
0.5483870967741935
 40
0.5483870967741935
 40
0.5483870967741935
 40
0.5806451612903226
 40
0.5806451612903226
 40
0.5806451612903226
 40
0.5806451612903226
 40
0.6129032258064516
 40
0.6129032258064516
 40
0.6129032258064516
 40
0.6129032258064516
 40
0.6451612903225806
 40
0.6451612903225806
 40
0.6451612903225806
 40
0.6451612903225806
 40
0.6774193548387096
 40
0.6774193548387096
 40
0.6774193548387096
 40
0.6774193548387096
 40
0.7096774193548387
 40
0.7096774193548387
 40
0.7096774193548387
 40
0.7096774193548387
 40
0.7419354838709677
 40
0.7419354838709677
 40
0.7419354838709677
 40
0.7419354838709677
 40
0.7741935483870968
 40
0.7741935483870968
 40
0.7741935483870968
 40
0.7741935483870968
 40
0.8064516129032258
 40
0.8064516129032258
 40
0.8064516129032258
 40
0.8064516129032258
 40
0.8387096774193549
 40
0.8387096774193549
 40
0.8387096774193549
 40
0.8387096774193549
 40
0.8709677419354839
 40
0.8709677419354839
 40
0.8709677419354839
 40
0.8709677419354839
 40
0.9032258064516129
 40
0.9032258064516129
 40
0.9032258064516129
 40
0.9032258064516129
 40
0.9354838709677419
 40
0.9354838709677419
 40
0.9354838709677419
 40
0.9354838709677419
 40
1.0
 40
1.0
 40
1.0
 40
1.0
 10
-2.91516
 20
-6.22473
 30
0.0
 10
-2.91516
 20
-6.22473
 30
0.0
 10
-2.89657
 20
-6.22226
 30
0.0
 10
-2.89657
 20
-6.22226
 30
0.0
 10
-2.89657
 20
-6.22226
 30
0.0
 10
-2.89442
 20
-6.2328
 30
0.0
 10
-2.89078
 20
-6.24039
 30
0.0
 10
-2.88567
 20
-6.24505
 30
0.0
 10
-2.88567
 20
-6.24505
 30
0.0
 10
-2.88052
 20
-6.2497
 30
0.0
 10
-2.87427
 20
-6.25203
 30
0.0
 10
-2.8669
 20
-6.25203
 30
0.0
 10
-2.8669
 20
-6.25203
 30
0.0
 10
-2.85815
 20
-6.25203
 30
0.0
 10
-2.85075
 20
-6.249
 30
0.0
 10
-2.84471
 20
-6.24293
 30
0.0
 10
-2.84471
 20
-6.24293
 30
0.0
 10
-2.83872
 20
-6.23686
 30
0.0
 10
-2.83568
 20
-6.22935
 30
0.0
 10
-2.83568
 20
-6.22039
 30
0.0
 10
-2.83568
 20
-6.22039
 30
0.0
 10
-2.83568
 20
-6.21185
 30
0.0
 10
-2.83847
 20
-6.20479
 30
0.0
 10
-2.84404
 20
-6.19926
 30
0.0
 10
-2.84404
 20
-6.19926
 30
0.0
 10
-2.84965
 20
-6.19372
 30
0.0
 10
-2.85674
 20
-6.19093
 30
0.0
 10
-2.86535
 20
-6.19093
 30
0.0
 10
-2.86535
 20
-6.19093
 30
0.0
 10
-2.86888
 20
-6.19093
 30
0.0
 10
-2.87325
 20
-6.19164
 30
0.0
 10
-2.87847
 20
-6.19301
 30
0.0
 10
-2.87847
 20
-6.19301
 30
0.0
 10
-2.87847
 20
-6.19301
 30
0.0
 10
-2.87639
 20
-6.17668
 30
0.0
 10
-2.87639
 20
-6.17668
 30
0.0
 10
-2.87639
 20
-6.17668
 30
0.0
 10
-2.87516
 20
-6.17682
 30
0.0
 10
-2.87417
 20
-6.17689
 30
0.0
 10
-2.87339
 20
-6.17689
 30
0.0
 10
-2.87339
 20
-6.17689
 30
0.0
 10
-2.86549
 20
-6.17689
 30
0.0
 10
-2.85836
 20
-6.17481
 30
0.0
 10
-2.85202
 20
-6.17068
 30
0.0
 10
-2.85202
 20
-6.17068
 30
0.0
 10
-2.84567
 20
-6.16656
 30
0.0
 10
-2.84249
 20
-6.16017
 30
0.0
 10
-2.84249
 20
-6.15156
 30
0.0
 10
-2.84249
 20
-6.15156
 30
0.0
 10
-2.84249
 20
-6.14475
 30
0.0
 10
-2.84482
 20
-6.13907
 30
0.0
 10
-2.84944
 20
-6.13463
 30
0.0
 10
-2.84944
 20
-6.13463
 30
0.0
 10
-2.85406
 20
-6.13015
 30
0.0
 10
-2.86002
 20
-6.12789
 30
0.0
 10
-2.86733
 20
-6.12789
 30
0.0
 10
-2.86733
 20
-6.12789
 30
0.0
 10
-2.87456
 20
-6.12789
 30
0.0
 10
-2.88059
 20
-6.13018
 30
0.0
 10
-2.88539
 20
-6.1347
 30
0.0
 10
-2.88539
 20
-6.1347
 30
0.0
 10
-2.89022
 20
-6.13925
 30
0.0
 10
-2.89332
 20
-6.14609
 30
0.0
 10
-2.8947
 20
-6.1552
 30
0.0
 10
-2.8947
 20
-6.1552
 30
0.0
 10
-2.8947
 20
-6.1552
 30
0.0
 10
-2.91329
 20
-6.15188
 30
0.0
 10
-2.91329
 20
-6.15188
 30
0.0
 10
-2.91329
 20
-6.15188
 30
0.0
 10
-2.91103
 20
-6.13939
 30
0.0
 10
-2.90585
 20
-6.12973
 30
0.0
 10
-2.8978
 20
-6.12288
 30
0.0
 10
-2.8978
 20
-6.12288
 30
0.0
 10
-2.88973
 20
-6.11604
 30
0.0
 10
-2.87971
 20
-6.11258
 30
0.0
 10
-2.86771
 20
-6.11258
 30
0.0
 10
-2.86771
 20
-6.11258
 30
0.0
 10
-2.85946
 20
-6.11258
 30
0.0
 10
-2.85184
 20
-6.11438
 30
0.0
 10
-2.84489
 20
-6.11791
 30
0.0
 10
-2.84489
 20
-6.11791
 30
0.0
 10
-2.83794
 20
-6.12147
 30
0.0
 10
-2.83261
 20
-6.1263
 30
0.0
 10
-2.82891
 20
-6.13244
 30
0.0
 10
-2.82891
 20
-6.13244
 30
0.0
 10
-2.82524
 20
-6.13858
 30
0.0
 10
-2.82337
 20
-6.14507
 30
0.0
 10
-2.82337
 20
-6.15199
 30
0.0
 10
-2.82337
 20
-6.15199
 30
0.0
 10
-2.82337
 20
-6.15851
 30
0.0
 10
-2.82513
 20
-6.16447
 30
0.0
 10
-2.82866
 20
-6.16987
 30
0.0
 10
-2.82866
 20
-6.16987
 30
0.0
 10
-2.83219
 20
-6.17523
 30
0.0
 10
-2.83738
 20
-6.1795
 30
0.0
 10
-2.84425
 20
-6.18268
 30
0.0
 10
-2.84425
 20
-6.18268
 30
0.0
 10
-2.83529
 20
-6.18472
 30
0.0
 10
-2.82834
 20
-6.18903
 30
0.0
 10
-2.82337
 20
-6.19555
 30
0.0
 10
-2.82337
 20
-6.19555
 30
0.0
 10
-2.81843
 20
-6.20204
 30
0.0
 10
-2.81596
 20
-6.21019
 30
0.0
 10
-2.81596
 20
-6.21996
 30
0.0
 10
-2.81596
 20
-6.21996
 30
0.0
 10
-2.81596
 20
-6.23319
 30
0.0
 10
-2.82076
 20
-6.24441
 30
0.0
 10
-2.83043
 20
-6.25362
 30
0.0
 10
-2.83043
 20
-6.25362
 30
0.0
 10
-2.84006
 20
-6.26283
 30
0.0
 10
-2.85226
 20
-6.26741
 30
0.0
 10
-2.86701
 20
-6.26741
 30
0.0
 10
-2.86701
 20
-6.26741
 30
0.0
 10
-2.88031
 20
-6.26741
 30
0.0
 10
-2.89135
 20
-6.26346
 30
0.0
 10
-2.90013
 20
-6.25552
 30
0.0
 10
-2.90013
 20
-6.25552
 30
0.0
 10
-2.90892
 20
-6.24762
 30
0.0
 10
-2.91393
 20
-6.23736
 30
0.0
 10
-2.91516
 20
-6.22473
 30
0.0
  0
SPLINE
  5
5E
330
1F
100
AcDbEntity
  8
Layer 1
 62
   230
100
AcDbSpline
210
0.0
220
0.0
230
1.0
 70
    11
 71
     3
 72
    48
 73
    44
 74
     0
 42
0.0000000001
 43
0.0000000001
 40
0.0
 40
0.0
 40
0.0
 40
0.0
 40
0.0833333333333333
 40
0.0833333333333333
 40
0.0833333333333333
 40
0.0833333333333333
 40
0.1666666666666667
 40
0.1666666666666667
 40
0.1666666666666667
 40
0.1666666666666667
 40
0.25
 40
0.25
 40
0.25
 40
0.25
 40
0.3333333333333333
 40
0.3333333333333333
 40
0.3333333333333333
 40
0.3333333333333333
 40
0.4166666666666667
 40
0.4166666666666667
 40
0.4166666666666667
 40
0.4166666666666667
 40
0.5
 40
0.5
 40
0.5
 40
0.5
 40
0.5833333333333334
 40
0.5833333333333334
 40
0.5833333333333334
 40
0.5833333333333334
 40
0.6666666666666666
 40
0.6666666666666666
 40
0.6666666666666666
 40
0.6666666666666666
 40
0.75
 40
0.75
 40
0.75
 40
0.75
 40
0.8333333333333334
 40
0.8333333333333334
 40
0.8333333333333334
 40
0.8333333333333334
 40
1.0
 40
1.0
 40
1.0
 40
1.0
 10
-7.14535
 20
-7.69578
 30
0.0
 10
-7.14535
 20
-7.69578
 30
0.0
 10
-7.14535
 20
-7.65952
 30
0.0
 10
-7.14535
 20
-7.65952
 30
0.0
 10
-7.14535
 20
-7.65952
 30
0.0
 10
-7.14535
 20
-7.65952
 30
0.0
 10
-7.21107
 20
-7.65952
 30
0.0
 10
-7.21107
 20
-7.65952
 30
0.0
 10
-7.21107
 20
-7.65952
 30
0.0
 10
-7.21107
 20
-7.65952
 30
0.0
 10
-7.21107
 20
-7.64244
 30
0.0
 10
-7.21107
 20
-7.64244
 30
0.0
 10
-7.21107
 20
-7.64244
 30
0.0
 10
-7.21107
 20
-7.64244
 30
0.0
 10
-7.14193
 20
-7.54427
 30
0.0
 10
-7.14193
 20
-7.54427
 30
0.0
 10
-7.14193
 20
-7.54427
 30
0.0
 10
-7.14193
 20
-7.54427
 30
0.0
 10
-7.12672
 20
-7.54427
 30
0.0
 10
-7.12672
 20
-7.54427
 30
0.0
 10
-7.12672
 20
-7.54427
 30
0.0
 10
-7.12672
 20
-7.54427
 30
0.0
 10
-7.12672
 20
-7.64244
 30
0.0
 10
-7.12672
 20
-7.64244
 30
0.0
 10
-7.12672
 20
-7.64244
 30
0.0
 10
-7.12672
 20
-7.64244
 30
0.0
 10
-7.10626
 20
-7.64244
 30
0.0
 10
-7.10626
 20
-7.64244
 30
0.0
 10
-7.10626
 20
-7.64244
 30
0.0
 10
-7.10626
 20
-7.64244
 30
0.0
 10
-7.10626
 20
-7.65952
 30
0.0
 10
-7.10626
 20
-7.65952
 30
0.0
 10
-7.10626
 20
-7.65952
 30
0.0
 10
-7.10626
 20
-7.65952
 30
0.0
 10
-7.12672
 20
-7.65952
 30
0.0
 10
-7.12672
 20
-7.65952
 30
0.0
 10
-7.12672
 20
-7.65952
 30
0.0
 10
-7.12672
 20
-7.65952
 30
0.0
 10
-7.12672
 20
-7.69578
 30
0.0
 10
-7.12672
 20
-7.69578
 30
0.0
 10
-7.12672
 20
-7.69578
 30
0.0
 10
-7.12672
 20
-7.69578
 30
0.0
 10
-7.14535
 20
-7.69578
 30
0.0
 10
-7.14535
 20
-7.69578
 30
0.0
  0
SPLINE
  5
5F
330
1F
100
AcDbEntity
  8
Layer 1
 62
   230
100
AcDbSpline
210
0.0
220
0.0
230
1.0
 70
    11
 71
     3
 72
    16
 73
    12
 74
     0
 42
0.0000000001
 43
0.0000000001
 40
0.0
 40
0.0
 40
0.0
 40
0.0
 40
0.25
 40
0.25
 40
0.25
 40
0.25
 40
0.5
 40
0.5
 40
0.5
 40
0.5
 40
1.0
 40
1.0
 40
1.0
 40
1.0
 10
-7.14535
 20
-7.64244
 30
0.0
 10
-7.14535
 20
-7.64244
 30
0.0
 10
-7.14535
 20
-7.57415
 30
0.0
 10
-7.14535
 20
-7.57415
 30
0.0
 10
-7.14535
 20
-7.57415
 30
0.0
 10
-7.14535
 20
-7.57415
 30
0.0
 10
-7.19276
 20
-7.64244
 30
0.0
 10
-7.19276
 20
-7.64244
 30
0.0
 10
-7.19276
 20
-7.64244
 30
0.0
 10
-7.19276
 20
-7.64244
 30
0.0
 10
-7.14535
 20
-7.64244
 30
0.0
 10
-7.14535
 20
-7.64244
 30
0.0
  0
SPLINE
  5
60
330
1F
100
AcDbEntity
  8
Layer 1
 62
   230
100
AcDbSpline
210
0.0
220
0.0
230
1.0
 70
    11
 71
     3
 72
    92
 73
    88
 74
     0
 42
0.0000000001
 43
0.0000000001
 40
0.0
 40
0.0
 40
0.0
 40
0.0
 40
0.0434782608695652
 40
0.0434782608695652
 40
0.0434782608695652
 40
0.0434782608695652
 40
0.0869565217391304
 40
0.0869565217391304
 40
0.0869565217391304
 40
0.0869565217391304
 40
0.1304347826086956
 40
0.1304347826086956
 40
0.1304347826086956
 40
0.1304347826086956
 40
0.1739130434782609
 40
0.1739130434782609
 40
0.1739130434782609
 40
0.1739130434782609
 40
0.2173913043478261
 40
0.2173913043478261
 40
0.2173913043478261
 40
0.2173913043478261
 40
0.2608695652173913
 40
0.2608695652173913
 40
0.2608695652173913
 40
0.2608695652173913
 40
0.3043478260869565
 40
0.3043478260869565
 40
0.3043478260869565
 40
0.3043478260869565
 40
0.3478260869565217
 40
0.3478260869565217
 40
0.3478260869565217
 40
0.3478260869565217
 40
0.391304347826087
 40
0.391304347826087
 40
0.391304347826087
 40
0.391304347826087
 40
0.4347826086956522
 40
0.4347826086956522
 40
0.4347826086956522
 40
0.4347826086956522
 40
0.4782608695652174
 40
0.4782608695652174
 40
0.4782608695652174
 40
0.4782608695652174
 40
0.5217391304347826
 40
0.5217391304347826
 40
0.5217391304347826
 40
0.5217391304347826
 40
0.5652173913043478
 40
0.5652173913043478
 40
0.5652173913043478
 40
0.5652173913043478
 40
0.6086956521739131
 40
0.6086956521739131
 40
0.6086956521739131
 40
0.6086956521739131
 40
0.6521739130434783
 40
0.6521739130434783
 40
0.6521739130434783
 40
0.6521739130434783
 40
0.6956521739130435
 40
0.6956521739130435
 40
0.6956521739130435
 40
0.6956521739130435
 40
0.7391304347826086
 40
0.7391304347826086
 40
0.7391304347826086
 40
0.7391304347826086
 40
0.782608695652174
 40
0.782608695652174
 40
0.782608695652174
 40
0.782608695652174
 40
0.8260869565217391
 40
0.8260869565217391
 40
0.8260869565217391
 40
0.8260869565217391
 40
0.8695652173913043
 40
0.8695652173913043
 40
0.8695652173913043
 40
0.8695652173913043
 40
0.9130434782608695
 40
0.9130434782608695
 40
0.9130434782608695
 40
0.9130434782608695
 40
1.0
 40
1.0
 40
1.0
 40
1.0
 10
-5.77583
 20
-7.65376
 30
0.0
 10
-5.77583
 20
-7.65376
 30
0.0
 10
-5.75628
 20
-7.65211
 30
0.0
 10
-5.75628
 20
-7.65211
 30
0.0
 10
-5.75628
 20
-7.65211
 30
0.0
 10
-5.75484
 20
-7.66163
 30
0.0
 10
-5.75149
 20
-7.66876
 30
0.0
 10
-5.74623
 20
-7.67355
 30
0.0
 10
-5.74623
 20
-7.67355
 30
0.0
 10
-5.74094
 20
-7.67835
 30
0.0
 10
-5.73459
 20
-7.68075
 30
0.0
 10
-5.72714
 20
-7.68075
 30
0.0
 10
-5.72714
 20
-7.68075
 30
0.0
 10
-5.71818
 20
-7.68075
 30
0.0
 10
-5.7106
 20
-7.67736
 30
0.0
 10
-5.70443
 20
-7.67063
 30
0.0
 10
-5.70443
 20
-7.67063
 30
0.0
 10
-5.69822
 20
-7.66385
 30
0.0
 10
-5.69511
 20
-7.65489
 30
0.0
 10
-5.69511
 20
-7.64375
 30
0.0
 10
-5.69511
 20
-7.64375
 30
0.0
 10
-5.69511
 20
-7.63313
 30
0.0
 10
-5.69808
 20
-7.62477
 30
0.0
 10
-5.70404
 20
-7.61863
 30
0.0
 10
-5.70404
 20
-7.61863
 30
0.0
 10
-5.71
 20
-7.61249
 30
0.0
 10
-5.7178
 20
-7.60942
 30
0.0
 10
-5.72746
 20
-7.60942
 30
0.0
 10
-5.72746
 20
-7.60942
 30
0.0
 10
-5.73346
 20
-7.60942
 30
0.0
 10
-5.73886
 20
-7.6108
 30
0.0
 10
-5.74369
 20
-7.61351
 30
0.0
 10
-5.74369
 20
-7.61351
 30
0.0
 10
-5.74852
 20
-7.61623
 30
0.0
 10
-5.7523
 20
-7.61976
 30
0.0
 10
-5.75505
 20
-7.6241
 30
0.0
 10
-5.75505
 20
-7.6241
 30
0.0
 10
-5.75505
 20
-7.6241
 30
0.0
 10
-5.77251
 20
-7.62184
 30
0.0
 10
-5.77251
 20
-7.62184
 30
0.0
 10
-5.77251
 20
-7.62184
 30
0.0
 10
-5.77251
 20
-7.62184
 30
0.0
 10
-5.75784
 20
-7.54402
 30
0.0
 10
-5.75784
 20
-7.54402
 30
0.0
 10
-5.75784
 20
-7.54402
 30
0.0
 10
-5.75784
 20
-7.54402
 30
0.0
 10
-5.68248
 20
-7.54402
 30
0.0
 10
-5.68248
 20
-7.54402
 30
0.0
 10
-5.68248
 20
-7.54402
 30
0.0
 10
-5.68248
 20
-7.54402
 30
0.0
 10
-5.68248
 20
-7.5618
 30
0.0
 10
-5.68248
 20
-7.5618
 30
0.0
 10
-5.68248
 20
-7.5618
 30
0.0
 10
-5.68248
 20
-7.5618
 30
0.0
 10
-5.74295
 20
-7.5618
 30
0.0
 10
-5.74295
 20
-7.5618
 30
0.0
 10
-5.74295
 20
-7.5618
 30
0.0
 10
-5.74295
 20
-7.5618
 30
0.0
 10
-5.75113
 20
-7.60251
 30
0.0
 10
-5.75113
 20
-7.60251
 30
0.0
 10
-5.75113
 20
-7.60251
 30
0.0
 10
-5.74203
 20
-7.59616
 30
0.0
 10
-5.73247
 20
-7.59298
 30
0.0
 10
-5.72249
 20
-7.59298
 30
0.0
 10
-5.72249
 20
-7.59298
 30
0.0
 10
-5.70926
 20
-7.59298
 30
0.0
 10
-5.69811
 20
-7.59757
 30
0.0
 10
-5.68901
 20
-7.60674
 30
0.0
 10
-5.68901
 20
-7.60674
 30
0.0
 10
-5.67991
 20
-7.61591
 30
0.0
 10
-5.67536
 20
-7.62769
 30
0.0
 10
-5.67536
 20
-7.64209
 30
0.0
 10
-5.67536
 20
-7.64209
 30
0.0
 10
-5.67536
 20
-7.65581
 30
0.0
 10
-5.67938
 20
-7.66766
 30
0.0
 10
-5.68735
 20
-7.67765
 30
0.0
 10
-5.68735
 20
-7.67765
 30
0.0
 10
-5.69709
 20
-7.68989
 30
0.0
 10
-5.71035
 20
-7.69603
 30
0.0
 10
-5.72714
 20
-7.69603
 30
0.0
 10
-5.72714
 20
-7.69603
 30
0.0
 10
-5.74094
 20
-7.69603
 30
0.0
 10
-5.75219
 20
-7.69218
 30
0.0
 10
-5.7609
 20
-7.68445
 30
0.0
 10
-5.7609
 20
-7.68445
 30
0.0
 10
-5.76962
 20
-7.67673
 30
0.0
 10
-5.77459
 20
-7.6665
 30
0.0
 10
-5.77583
 20
-7.65376
 30
0.0
  0
SPLINE
  5
61
330
1F
100
AcDbEntity
  8
Layer 1
 62
   230
100
AcDbSpline
210
0.0
220
0.0
230
1.0
 70
    11
 71
     3
 72
    80
 73
    76
 74
     0
 42
0.0000000001
 43
0.0000000001
 40
0.0
 40
0.0
 40
0.0
 40
0.0
 40
0.05
 40
0.05
 40
0.05
 40
0.05
 40
0.1
 40
0.1
 40
0.1
 40
0.1
 40
0.15
 40
0.15
 40
0.15
 40
0.15
 40
0.2
 40
0.2
 40
0.2
 40
0.2
 40
0.25
 40
0.25
 40
0.25
 40
0.25
 40
0.3
 40
0.3
 40
0.3
 40
0.3
 40
0.35
 40
0.35
 40
0.35
 40
0.35
 40
0.4
 40
0.4
 40
0.4
 40
0.4
 40
0.45
 40
0.45
 40
0.45
 40
0.45
 40
0.5
 40
0.5
 40
0.5
 40
0.5
 40
0.55
 40
0.55
 40
0.55
 40
0.55
 40
0.6
 40
0.6
 40
0.6
 40
0.6
 40
0.65
 40
0.65
 40
0.65
 40
0.65
 40
0.7
 40
0.7
 40
0.7
 40
0.7
 40
0.75
 40
0.75
 40
0.75
 40
0.75
 40
0.8
 40
0.8
 40
0.8
 40
0.8
 40
0.85
 40
0.85
 40
0.85
 40
0.85
 40
0.9
 40
0.9
 40
0.9
 40
0.9
 40
1.0
 40
1.0
 40
1.0
 40
1.0
 10
-4.24871
 20
-7.58041
 30
0.0
 10
-4.24871
 20
-7.58041
 30
0.0
 10
-4.26719
 20
-7.58185
 30
0.0
 10
-4.26719
 20
-7.58185
 30
0.0
 10
-4.26719
 20
-7.58185
 30
0.0
 10
-4.26885
 20
-7.57455
 30
0.0
 10
-4.27118
 20
-7.56923
 30
0.0
 10
-4.27421
 20
-7.56594
 30
0.0
 10
-4.27421
 20
-7.56594
 30
0.0
 10
-4.27926
 20
-7.56062
 30
0.0
 10
-4.28547
 20
-7.55797
 30
0.0
 10
-4.29284
 20
-7.55797
 30
0.0
 10
-4.29284
 20
-7.55797
 30
0.0
 10
-4.29877
 20
-7.55797
 30
0.0
 10
-4.30395
 20
-7.55963
 30
0.0
 10
-4.30843
 20
-7.56295
 30
0.0
 10
-4.30843
 20
-7.56295
 30
0.0
 10
-4.31429
 20
-7.56721
 30
0.0
 10
-4.31891
 20
-7.57346
 30
0.0
 10
-4.3223
 20
-7.58164
 30
0.0
 10
-4.3223
 20
-7.58164
 30
0.0
 10
-4.32565
 20
-7.58983
 30
0.0
 10
-4.32741
 20
-7.6015
 30
0.0
 10
-4.32755
 20
-7.61667
 30
0.0
 10
-4.32755
 20
-7.61667
 30
0.0
 10
-4.32307
 20
-7.60986
 30
0.0
 10
-4.3176
 20
-7.60478
 30
0.0
 10
-4.31111
 20
-7.60147
 30
0.0
 10
-4.31111
 20
-7.60147
 30
0.0
 10
-4.30466
 20
-7.59819
 30
0.0
 10
-4.29785
 20
-7.59653
 30
0.0
 10
-4.29076
 20
-7.59653
 30
0.0
 10
-4.29076
 20
-7.59653
 30
0.0
 10
-4.27834
 20
-7.59653
 30
0.0
 10
-4.26779
 20
-7.60108
 30
0.0
 10
-4.25908
 20
-7.61022
 30
0.0
 10
-4.25908
 20
-7.61022
 30
0.0
 10
-4.25037
 20
-7.61935
 30
0.0
 10
-4.24599
 20
-7.63114
 30
0.0
 10
-4.24599
 20
-7.6456
 30
0.0
 10
-4.24599
 20
-7.6456
 30
0.0
 10
-4.24599
 20
-7.65512
 30
0.0
 10
-4.24807
 20
-7.66394
 30
0.0
 10
-4.25217
 20
-7.67213
 30
0.0
 10
-4.25217
 20
-7.67213
 30
0.0
 10
-4.25626
 20
-7.68028
 30
0.0
 10
-4.2619
 20
-7.68656
 30
0.0
 10
-4.26906
 20
-7.69089
 30
0.0
 10
-4.26906
 20
-7.69089
 30
0.0
 10
-4.27622
 20
-7.69523
 30
0.0
 10
-4.28434
 20
-7.69739
 30
0.0
 10
-4.29344
 20
-7.69739
 30
0.0
 10
-4.29344
 20
-7.69739
 30
0.0
 10
-4.30896
 20
-7.69739
 30
0.0
 10
-4.32159
 20
-7.69171
 30
0.0
 10
-4.33136
 20
-7.68028
 30
0.0
 10
-4.33136
 20
-7.68028
 30
0.0
 10
-4.34117
 20
-7.66888
 30
0.0
 10
-4.34604
 20
-7.65008
 30
0.0
 10
-4.34604
 20
-7.6239
 30
0.0
 10
-4.34604
 20
-7.6239
 30
0.0
 10
-4.34604
 20
-7.59462
 30
0.0
 10
-4.34064
 20
-7.57335
 30
0.0
 10
-4.32981
 20
-7.56005
 30
0.0
 10
-4.32981
 20
-7.56005
 30
0.0
 10
-4.32039
 20
-7.54848
 30
0.0
 10
-4.30769
 20
-7.54266
 30
0.0
 10
-4.29168
 20
-7.54266
 30
0.0
 10
-4.29168
 20
-7.54266
 30
0.0
 10
-4.27979
 20
-7.54266
 30
0.0
 10
-4.27002
 20
-7.54601
 30
0.0
 10
-4.2624
 20
-7.55272
 30
0.0
 10
-4.2624
 20
-7.55272
 30
0.0
 10
-4.25478
 20
-7.55938
 30
0.0
 10
-4.25023
 20
-7.56863
 30
0.0
 10
-4.24871
 20
-7.58041
 30
0.0
  0
SPLINE
  5
62
330
1F
100
AcDbEntity
  8
Layer 1
 62
   230
100
AcDbSpline
210
0.0
220
0.0
230
1.0
 70
    11
 71
     3
 72
    40
 73
    36
 74
     0
 42
0.0000000001
 43
0.0000000001
 40
0.0
 40
0.0
 40
0.0
 40
0.0
 40
0.1
 40
0.1
 40
0.1
 40
0.1
 40
0.2
 40
0.2
 40
0.2
 40
0.2
 40
0.3
 40
0.3
 40
0.3
 40
0.3
 40
0.4
 40
0.4
 40
0.4
 40
0.4
 40
0.5
 40
0.5
 40
0.5
 40
0.5
 40
0.6
 40
0.6
 40
0.6
 40
0.6
 40
0.7
 40
0.7
 40
0.7
 40
0.7
 40
0.8
 40
0.8
 40
0.8
 40
0.8
 40
1.0
 40
1.0
 40
1.0
 40
1.0
 10
-4.32466
 20
-7.6457
 30
0.0
 10
-4.32466
 20
-7.65213
 30
0.0
 10
-4.32328
 20
-7.65826
 30
0.0
 10
-4.32057
 20
-7.66412
 30
0.0
 10
-4.32057
 20
-7.66412
 30
0.0
 10
-4.31785
 20
-7.66998
 30
0.0
 10
-4.31404
 20
-7.67442
 30
0.0
 10
-4.30917
 20
-7.67749
 30
0.0
 10
-4.30917
 20
-7.67749
 30
0.0
 10
-4.30427
 20
-7.68056
 30
0.0
 10
-4.29912
 20
-7.68211
 30
0.0
 10
-4.29376
 20
-7.68211
 30
0.0
 10
-4.29376
 20
-7.68211
 30
0.0
 10
-4.28589
 20
-7.68211
 30
0.0
 10
-4.27915
 20
-7.67894
 30
0.0
 10
-4.27351
 20
-7.67259
 30
0.0
 10
-4.27351
 20
-7.67259
 30
0.0
 10
-4.26786
 20
-7.66624
 30
0.0
 10
-4.26504
 20
-7.65763
 30
0.0
 10
-4.26504
 20
-7.64676
 30
0.0
 10
-4.26504
 20
-7.64676
 30
0.0
 10
-4.26504
 20
-7.63629
 30
0.0
 10
-4.26783
 20
-7.62803
 30
0.0
 10
-4.2734
 20
-7.622
 30
0.0
 10
-4.2734
 20
-7.622
 30
0.0
 10
-4.27898
 20
-7.61597
 30
0.0
 10
-4.286
 20
-7.61297
 30
0.0
 10
-4.29446
 20
-7.61297
 30
0.0
 10
-4.29446
 20
-7.61297
 30
0.0
 10
-4.30289
 20
-7.61297
 30
0.0
 10
-4.31002
 20
-7.61597
 30
0.0
 10
-4.31588
 20
-7.622
 30
0.0
 10
-4.31588
 20
-7.622
 30
0.0
 10
-4.32173
 20
-7.62803
 30
0.0
 10
-4.32466
 20
-7.63593
 30
0.0
 10
-4.32466
 20
-7.6457
 30
0.0
  0
SPLINE
  5
63
330
1F
100
AcDbEntity
  8
Layer 1
 62
   230
100
AcDbSpline
210
0.0
220
0.0
230
1.0
 70
    11
 71
     3
 72
    48
 73
    44
 74
     0
 42
0.0000000001
 43
0.0000000001
 40
0.0
 40
0.0
 40
0.0
 40
0.0
 40
0.0833333333333333
 40
0.0833333333333333
 40
0.0833333333333333
 40
0.0833333333333333
 40
0.1666666666666667
 40
0.1666666666666667
 40
0.1666666666666667
 40
0.1666666666666667
 40
0.25
 40
0.25
 40
0.25
 40
0.25
 40
0.3333333333333333
 40
0.3333333333333333
 40
0.3333333333333333
 40
0.3333333333333333
 40
0.4166666666666667
 40
0.4166666666666667
 40
0.4166666666666667
 40
0.4166666666666667
 40
0.5
 40
0.5
 40
0.5
 40
0.5
 40
0.5833333333333334
 40
0.5833333333333334
 40
0.5833333333333334
 40
0.5833333333333334
 40
0.6666666666666666
 40
0.6666666666666666
 40
0.6666666666666666
 40
0.6666666666666666
 40
0.75
 40
0.75
 40
0.75
 40
0.75
 40
0.8333333333333334
 40
0.8333333333333334
 40
0.8333333333333334
 40
0.8333333333333334
 40
1.0
 40
1.0
 40
1.0
 40
1.0
 10
-2.91403
 20
-7.56314
 30
0.0
 10
-2.91403
 20
-7.56314
 30
0.0
 10
-2.91403
 20
-7.54525
 30
0.0
 10
-2.91403
 20
-7.54525
 30
0.0
 10
-2.91403
 20
-7.54525
 30
0.0
 10
-2.91403
 20
-7.54525
 30
0.0
 10
-2.81596
 20
-7.54525
 30
0.0
 10
-2.81596
 20
-7.54525
 30
0.0
 10
-2.81596
 20
-7.54525
 30
0.0
 10
-2.81596
 20
-7.54525
 30
0.0
 10
-2.81596
 20
-7.55972
 30
0.0
 10
-2.81596
 20
-7.55972
 30
0.0
 10
-2.81596
 20
-7.55972
 30
0.0
 10
-2.82559
 20
-7.56998
 30
0.0
 10
-2.83515
 20
-7.58363
 30
0.0
 10
-2.84464
 20
-7.60064
 30
0.0
 10
-2.84464
 20
-7.60064
 30
0.0
 10
-2.8541
 20
-7.61764
 30
0.0
 10
-2.86143
 20
-7.63517
 30
0.0
 10
-2.86658
 20
-7.65313
 30
0.0
 10
-2.86658
 20
-7.65313
 30
0.0
 10
-2.87032
 20
-7.66583
 30
0.0
 10
-2.87269
 20
-7.67969
 30
0.0
 10
-2.87371
 20
-7.69479
 30
0.0
 10
-2.87371
 20
-7.69479
 30
0.0
 10
-2.87371
 20
-7.69479
 30
0.0
 10
-2.89283
 20
-7.69479
 30
0.0
 10
-2.89283
 20
-7.69479
 30
0.0
 10
-2.89283
 20
-7.69479
 30
0.0
 10
-2.89262
 20
-7.68287
 30
0.0
 10
-2.89029
 20
-7.66847
 30
0.0
 10
-2.88581
 20
-7.65158
 30
0.0
 10
-2.88581
 20
-7.65158
 30
0.0
 10
-2.88133
 20
-7.63471
 30
0.0
 10
-2.87491
 20
-7.61842
 30
0.0
 10
-2.86655
 20
-7.60275
 30
0.0
 10
-2.86655
 20
-7.60275
 30
0.0
 10
-2.85815
 20
-7.58709
 30
0.0
 10
-2.84926
 20
-7.57386
 30
0.0
 10
-2.83981
 20
-7.56314
 30
0.0
 10
-2.83981
 20
-7.56314
 30
0.0
 10
-2.83981
 20
-7.56314
 30
0.0
 10
-2.91403
 20
-7.56314
 30
0.0
 10
-2.91403
 20
-7.56314
 30
0.0
  0
SPLINE
  5
64
330
1F
100
AcDbEntity
  8
Layer 1
 62
   230
100
AcDbSpline
210
0.0
220
0.0
230
1.0
 70
    11
 71
     3
 72
    68
 73
    64
 74
     0
 42
0.0000000001
 43
0.0000000001
 40
0.0
 40
0.0
 40
0.0
 40
0.0
 40
0.0588235294117647
 40
0.0588235294117647
 40
0.0588235294117647
 40
0.0588235294117647
 40
0.1176470588235294
 40
0.1176470588235294
 40
0.1176470588235294
 40
0.1176470588235294
 40
0.1764705882352941
 40
0.1764705882352941
 40
0.1764705882352941
 40
0.1764705882352941
 40
0.2352941176470588
 40
0.2352941176470588
 40
0.2352941176470588
 40
0.2352941176470588
 40
0.2941176470588235
 40
0.2941176470588235
 40
0.2941176470588235
 40
0.2941176470588235
 40
0.3529411764705883
 40
0.3529411764705883
 40
0.3529411764705883
 40
0.3529411764705883
 40
0.4117647058823529
 40
0.4117647058823529
 40
0.4117647058823529
 40
0.4117647058823529
 40
0.4705882352941176
 40
0.4705882352941176
 40
0.4705882352941176
 40
0.4705882352941176
 40
0.5294117647058824
 40
0.5294117647058824
 40
0.5294117647058824
 40
0.5294117647058824
 40
0.5882352941176471
 40
0.5882352941176471
 40
0.5882352941176471
 40
0.5882352941176471
 40
0.6470588235294118
 40
0.6470588235294118
 40
0.6470588235294118
 40
0.6470588235294118
 40
0.7058823529411765
 40
0.7058823529411765
 40
0.7058823529411765
 40
0.7058823529411765
 40
0.7647058823529411
 40
0.7647058823529411
 40
0.7647058823529411
 40
0.7647058823529411
 40
0.8235294117647058
 40
0.8235294117647058
 40
0.8235294117647058
 40
0.8235294117647058
 40
0.8823529411764706
 40
0.8823529411764706
 40
0.8823529411764706
 40
0.8823529411764706
 40
1.0
 40
1.0
 40
1.0
 40
1.0
 10
-1.45674
 20
-7.61265
 30
0.0
 10
-1.46447
 20
-7.60983
 30
0.0
 10
-1.47018
 20
-7.60581
 30
0.0
 10
-1.47392
 20
-7.60055
 30
0.0
 10
-1.47392
 20
-7.60055
 30
0.0
 10
-1.47763
 20
-7.59533
 30
0.0
 10
-1.47949
 20
-7.58905
 30
0.0
 10
-1.47949
 20
-7.58175
 30
0.0
 10
-1.47949
 20
-7.58175
 30
0.0
 10
-1.47949
 20
-7.57071
 30
0.0
 10
-1.47554
 20
-7.56146
 30
0.0
 10
-1.46761
 20
-7.55395
 30
0.0
 10
-1.46761
 20
-7.55395
 30
0.0
 10
-1.45967
 20
-7.54644
 30
0.0
 10
-1.44916
 20
-7.54266
 30
0.0
 10
-1.436
 20
-7.54266
 30
0.0
 10
-1.436
 20
-7.54266
 30
0.0
 10
-1.42277
 20
-7.54266
 30
0.0
 10
-1.41212
 20
-7.54651
 30
0.0
 10
-1.40404
 20
-7.5542
 30
0.0
 10
-1.40404
 20
-7.5542
 30
0.0
 10
-1.396
 20
-7.56189
 30
0.0
 10
-1.39197
 20
-7.57124
 30
0.0
 10
-1.39197
 20
-7.58228
 30
0.0
 10
-1.39197
 20
-7.58228
 30
0.0
 10
-1.39197
 20
-7.5893
 30
0.0
 10
-1.39381
 20
-7.5954
 30
0.0
 10
-1.39748
 20
-7.60062
 30
0.0
 10
-1.39748
 20
-7.60062
 30
0.0
 10
-1.40118
 20
-7.60581
 30
0.0
 10
-1.40675
 20
-7.60983
 30
0.0
 10
-1.41427
 20
-7.61265
 30
0.0
 10
-1.41427
 20
-7.61265
 30
0.0
 10
-1.40499
 20
-7.61568
 30
0.0
 10
-1.3979
 20
-7.62055
 30
0.0
 10
-1.39303
 20
-7.62733
 30
0.0
 10
-1.39303
 20
-7.62733
 30
0.0
 10
-1.3882
 20
-7.63406
 30
0.0
 10
-1.38576
 20
-7.64214
 30
0.0
 10
-1.38576
 20
-7.65149
 30
0.0
 10
-1.38576
 20
-7.65149
 30
0.0
 10
-1.38576
 20
-7.66447
 30
0.0
 10
-1.39035
 20
-7.67534
 30
0.0
 10
-1.39949
 20
-7.68416
 30
0.0
 10
-1.39949
 20
-7.68416
 30
0.0
 10
-1.40866
 20
-7.69298
 30
0.0
 10
-1.42072
 20
-7.69739
 30
0.0
 10
-1.43568
 20
-7.69739
 30
0.0
 10
-1.43568
 20
-7.69739
 30
0.0
 10
-1.45064
 20
-7.69739
 30
0.0
 10
-1.46267
 20
-7.69298
 30
0.0
 10
-1.47184
 20
-7.68412
 30
0.0
 10
-1.47184
 20
-7.68412
 30
0.0
 10
-1.48101
 20
-7.67527
 30
0.0
 10
-1.4856
 20
-7.66423
 30
0.0
 10
-1.4856
 20
-7.651
 30
0.0
 10
-1.4856
 20
-7.651
 30
0.0
 10
-1.4856
 20
-7.64115
 30
0.0
 10
-1.48309
 20
-7.6329
 30
0.0
 10
-1.47808
 20
-7.62623
 30
0.0
 10
-1.47808
 20
-7.62623
 30
0.0
 10
-1.47311
 20
-7.6196
 30
0.0
 10
-1.46598
 20
-7.61505
 30
0.0
 10
-1.45674
 20
-7.61265
 30
0.0
  0
SPLINE
  5
65
330
1F
100
AcDbEntity
  8
Layer 1
 62
   230
100
AcDbSpline
210
0.0
220
0.0
230
1.0
 70
    11
 71
     3
 72
    36
 73
    32
 74
     0
 42
0.0000000001
 43
0.0000000001
 40
0.0
 40
0.0
 40
0.0
 40
0.0
 40
0.1111111111111111
 40
0.1111111111111111
 40
0.1111111111111111
 40
0.1111111111111111
 40
0.2222222222222222
 40
0.2222222222222222
 40
0.2222222222222222
 40
0.2222222222222222
 40
0.3333333333333333
 40
0.3333333333333333
 40
0.3333333333333333
 40
0.3333333333333333
 40
0.4444444444444444
 40
0.4444444444444444
 40
0.4444444444444444
 40
0.4444444444444444
 40
0.5555555555555556
 40
0.5555555555555556
 40
0.5555555555555556
 40
0.5555555555555556
 40
0.6666666666666666
 40
0.6666666666666666
 40
0.6666666666666666
 40
0.6666666666666666
 40
0.7777777777777778
 40
0.7777777777777778
 40
0.7777777777777778
 40
0.7777777777777778
 40
1.0
 40
1.0
 40
1.0
 40
1.0
 10
-1.46048
 20
-7.58111
 30
0.0
 10
-1.46048
 20
-7.58827
 30
0.0
 10
-1.45815
 20
-7.59413
 30
0.0
 10
-1.45357
 20
-7.59868
 30
0.0
 10
-1.45357
 20
-7.59868
 30
0.0
 10
-1.44895
 20
-7.60323
 30
0.0
 10
-1.44295
 20
-7.60552
 30
0.0
 10
-1.43558
 20
-7.60552
 30
0.0
 10
-1.43558
 20
-7.60552
 30
0.0
 10
-1.42841
 20
-7.60552
 30
0.0
 10
-1.42252
 20
-7.60327
 30
0.0
 10
-1.41794
 20
-7.59875
 30
0.0
 10
-1.41794
 20
-7.59875
 30
0.0
 10
-1.41335
 20
-7.59424
 30
0.0
 10
-1.41109
 20
-7.5887
 30
0.0
 10
-1.41109
 20
-7.58217
 30
0.0
 10
-1.41109
 20
-7.58217
 30
0.0
 10
-1.41109
 20
-7.57533
 30
0.0
 10
-1.41342
 20
-7.56961
 30
0.0
 10
-1.41815
 20
-7.56496
 30
0.0
 10
-1.41815
 20
-7.56496
 30
0.0
 10
-1.42288
 20
-7.5603
 30
0.0
 10
-1.42873
 20
-7.55797
 30
0.0
 10
-1.43579
 20
-7.55797
 30
0.0
 10
-1.43579
 20
-7.55797
 30
0.0
 10
-1.44288
 20
-7.55797
 30
0.0
 10
-1.44877
 20
-7.56026
 30
0.0
 10
-1.45346
 20
-7.56478
 30
0.0
 10
-1.45346
 20
-7.56478
 30
0.0
 10
-1.45815
 20
-7.56933
 30
0.0
 10
-1.46048
 20
-7.5748
 30
0.0
 10
-1.46048
 20
-7.58111
 30
0.0
  0
SPLINE
  5
66
330
1F
100
AcDbEntity
  8
Layer 1
 62
   230
100
AcDbSpline
210
0.0
220
0.0
230
1.0
 70
    11
 71
     3
 72
    40
 73
    36
 74
     0
 42
0.0000000001
 43
0.0000000001
 40
0.0
 40
0.0
 40
0.0
 40
0.0
 40
0.1
 40
0.1
 40
0.1
 40
0.1
 40
0.2
 40
0.2
 40
0.2
 40
0.2
 40
0.3
 40
0.3
 40
0.3
 40
0.3
 40
0.4
 40
0.4
 40
0.4
 40
0.4
 40
0.5
 40
0.5
 40
0.5
 40
0.5
 40
0.6
 40
0.6
 40
0.6
 40
0.6
 40
0.7
 40
0.7
 40
0.7
 40
0.7
 40
0.8
 40
0.8
 40
0.8
 40
0.8
 40
1.0
 40
1.0
 40
1.0
 40
1.0
 10
-1.46648
 20
-7.6511
 30
0.0
 10
-1.46648
 20
-7.65639
 30
0.0
 10
-1.46521
 20
-7.66154
 30
0.0
 10
-1.4627
 20
-7.66648
 30
0.0
 10
-1.4627
 20
-7.66648
 30
0.0
 10
-1.4602
 20
-7.67146
 30
0.0
 10
-1.45646
 20
-7.6753
 30
0.0
 10
-1.45149
 20
-7.67802
 30
0.0
 10
-1.45149
 20
-7.67802
 30
0.0
 10
-1.44651
 20
-7.68073
 30
0.0
 10
-1.44118
 20
-7.68211
 30
0.0
 10
-1.43547
 20
-7.68211
 30
0.0
 10
-1.43547
 20
-7.68211
 30
0.0
 10
-1.42658
 20
-7.68211
 30
0.0
 10
-1.41924
 20
-7.67925
 30
0.0
 10
-1.41346
 20
-7.6735
 30
0.0
 10
-1.41346
 20
-7.6735
 30
0.0
 10
-1.40767
 20
-7.66779
 30
0.0
 10
-1.40478
 20
-7.66052
 30
0.0
 10
-1.40478
 20
-7.6517
 30
0.0
 10
-1.40478
 20
-7.6517
 30
0.0
 10
-1.40478
 20
-7.64274
 30
0.0
 10
-1.40774
 20
-7.63533
 30
0.0
 10
-1.4137
 20
-7.62948
 30
0.0
 10
-1.4137
 20
-7.62948
 30
0.0
 10
-1.41967
 20
-7.62362
 30
0.0
 10
-1.42714
 20
-7.62069
 30
0.0
 10
-1.4361
 20
-7.62069
 30
0.0
 10
-1.4361
 20
-7.62069
 30
0.0
 10
-1.44485
 20
-7.62069
 30
0.0
 10
-1.45208
 20
-7.62359
 30
0.0
 10
-1.45784
 20
-7.62937
 30
0.0
 10
-1.45784
 20
-7.62937
 30
0.0
 10
-1.46359
 20
-7.63519
 30
0.0
 10
-1.46648
 20
-7.64242
 30
0.0
 10
-1.46648
 20
-7.6511
 30
0.0
  0
SPLINE
  5
67
330
1F
100
AcDbEntity
  8
Layer 1
 62
   230
100
AcDbSpline
210
0.0
220
0.0
230
1.0
 70
    11
 71
     3
 72
    92
 73
    88
 74
     0
 42
0.0000000001
 43
0.0000000001
 40
0.0
 40
0.0
 40
0.0
 40
0.0
 40
0.0434782608695652
 40
0.0434782608695652
 40
0.0434782608695652
 40
0.0434782608695652
 40
0.0869565217391304
 40
0.0869565217391304
 40
0.0869565217391304
 40
0.0869565217391304
 40
0.1304347826086956
 40
0.1304347826086956
 40
0.1304347826086956
 40
0.1304347826086956
 40
0.1739130434782609
 40
0.1739130434782609
 40
0.1739130434782609
 40
0.1739130434782609
 40
0.2173913043478261
 40
0.2173913043478261
 40
0.2173913043478261
 40
0.2173913043478261
 40
0.2608695652173913
 40
0.2608695652173913
 40
0.2608695652173913
 40
0.2608695652173913
 40
0.3043478260869565
 40
0.3043478260869565
 40
0.3043478260869565
 40
0.3043478260869565
 40
0.3478260869565217
 40
0.3478260869565217
 40
0.3478260869565217
 40
0.3478260869565217
 40
0.391304347826087
 40
0.391304347826087
 40
0.391304347826087
 40
0.391304347826087
 40
0.4347826086956522
 40
0.4347826086956522
 40
0.4347826086956522
 40
0.4347826086956522
 40
0.4782608695652174
 40
0.4782608695652174
 40
0.4782608695652174
 40
0.4782608695652174
 40
0.5217391304347826
 40
0.5217391304347826
 40
0.5217391304347826
 40
0.5217391304347826
 40
0.5652173913043478
 40
0.5652173913043478
 40
0.5652173913043478
 40
0.5652173913043478
 40
0.6086956521739131
 40
0.6086956521739131
 40
0.6086956521739131
 40
0.6086956521739131
 40
0.6521739130434783
 40
0.6521739130434783
 40
0.6521739130434783
 40
0.6521739130434783
 40
0.6956521739130435
 40
0.6956521739130435
 40
0.6956521739130435
 40
0.6956521739130435
 40
0.7391304347826086
 40
0.7391304347826086
 40
0.7391304347826086
 40
0.7391304347826086
 40
0.782608695652174
 40
0.782608695652174
 40
0.782608695652174
 40
0.782608695652174
 40
0.8260869565217391
 40
0.8260869565217391
 40
0.8260869565217391
 40
0.8260869565217391
 40
0.8695652173913043
 40
0.8695652173913043
 40
0.8695652173913043
 40
0.8695652173913043
 40
0.9130434782608695
 40
0.9130434782608695
 40
0.9130434782608695
 40
0.9130434782608695
 40
1.0
 40
1.0
 40
1.0
 40
1.0
 10
-7.18785
 20
-9.09104
 30
0.0
 10
-7.18785
 20
-9.09104
 30
0.0
 10
-7.16996
 20
-9.08938
 30
0.0
 10
-7.16996
 20
-9.08938
 30
0.0
 10
-7.16996
 20
-9.08938
 30
0.0
 10
-7.16845
 20
-9.09778
 30
0.0
 10
-7.16555
 20
-9.10388
 30
0.0
 10
-7.16129
 20
-9.10769
 30
0.0
 10
-7.16129
 20
-9.10769
 30
0.0
 10
-7.15702
 20
-9.11147
 30
0.0
 10
-7.15155
 20
-9.11337
 30
0.0
 10
-7.14485
 20
-9.11337
 30
0.0
 10
-7.14485
 20
-9.11337
 30
0.0
 10
-7.13913
 20
-9.11337
 30
0.0
 10
-7.13412
 20
-9.11207
 30
0.0
 10
-7.12982
 20
-9.10942
 30
0.0
 10
-7.12982
 20
-9.10942
 30
0.0
 10
-7.12552
 20
-9.10681
 30
0.0
 10
-7.12199
 20
-9.10332
 30
0.0
 10
-7.11924
 20
-9.09894
 30
0.0
 10
-7.11924
 20
-9.09894
 30
0.0
 10
-7.11645
 20
-9.09457
 30
0.0
 10
-7.11416
 20
-9.08864
 30
0.0
 10
-7.11229
 20
-9.08123
 30
0.0
 10
-7.11229
 20
-9.08123
 30
0.0
 10
-7.11045
 20
-9.07379
 30
0.0
 10
-7.1095
 20
-9.06621
 30
0.0
 10
-7.1095
 20
-9.05848
 30
0.0
 10
-7.1095
 20
-9.05848
 30
0.0
 10
-7.1095
 20
-9.05767
 30
0.0
 10
-7.10954
 20
-9.0564
 30
0.0
 10
-7.10961
 20
-9.05478
 30
0.0
 10
-7.10961
 20
-9.05478
 30
0.0
 10
-7.11334
 20
-9.06067
 30
0.0
 10
-7.11842
 20
-9.0655
 30
0.0
 10
-7.12485
 20
-9.06917
 30
0.0
 10
-7.12485
 20
-9.06917
 30
0.0
 10
-7.1313
 20
-9.07287
 30
0.0
 10
-7.13829
 20
-9.07471
 30
0.0
 10
-7.14576
 20
-9.07471
 30
0.0
 10
-7.14576
 20
-9.07471
 30
0.0
 10
-7.15832
 20
-9.07471
 30
0.0
 10
-7.16894
 20
-9.07016
 30
0.0
 10
-7.17762
 20
-9.06106
 30
0.0
 10
-7.17762
 20
-9.06106
 30
0.0
 10
-7.1863
 20
-9.05195
 30
0.0
 10
-7.19064
 20
-9.03999
 30
0.0
 10
-7.19064
 20
-9.02511
 30
0.0
 10
-7.19064
 20
-9.02511
 30
0.0
 10
-7.19064
 20
-9.00973
 30
0.0
 10
-7.18612
 20
-8.99738
 30
0.0
 10
-7.17705
 20
-8.988
 30
0.0
 10
-7.17705
 20
-8.988
 30
0.0
 10
-7.16799
 20
-8.97861
 30
0.0
 10
-7.15663
 20
-8.97392
 30
0.0
 10
-7.14298
 20
-8.97392
 30
0.0
 10
-7.14298
 20
-8.97392
 30
0.0
 10
-7.13314
 20
-8.97392
 30
0.0
 10
-7.12414
 20
-8.9766
 30
0.0
 10
-7.11596
 20
-8.98189
 30
0.0
 10
-7.11596
 20
-8.98189
 30
0.0
 10
-7.10781
 20
-8.98719
 30
0.0
 10
-7.1016
 20
-8.99477
 30
0.0
 10
-7.09736
 20
-9.00458
 30
0.0
 10
-7.09736
 20
-9.00458
 30
0.0
 10
-7.09313
 20
-9.01438
 30
0.0
 10
-7.09101
 20
-9.0286
 30
0.0
 10
-7.09101
 20
-9.04723
 30
0.0
 10
-7.09101
 20
-9.04723
 30
0.0
 10
-7.09101
 20
-9.06656
 30
0.0
 10
-7.0931
 20
-9.08197
 30
0.0
 10
-7.09729
 20
-9.09347
 30
0.0
 10
-7.09729
 20
-9.09347
 30
0.0
 10
-7.10153
 20
-9.10494
 30
0.0
 10
-7.10777
 20
-9.11365
 30
0.0
 10
-7.11606
 20
-9.11965
 30
0.0
 10
-7.11606
 20
-9.11965
 30
0.0
 10
-7.12439
 20
-9.12565
 30
0.0
 10
-7.13409
 20
-9.12865
 30
0.0
 10
-7.14527
 20
-9.12865
 30
0.0
 10
-7.14527
 20
-9.12865
 30
0.0
 10
-7.15712
 20
-9.12865
 30
0.0
 10
-7.16679
 20
-9.12536
 30
0.0
 10
-7.1743
 20
-9.11877
 30
0.0
 10
-7.1743
 20
-9.11877
 30
0.0
 10
-7.18182
 20
-9.11221
 30
0.0
 10
-7.18633
 20
-9.10296
 30
0.0
 10
-7.18785
 20
-9.09104
 30
0.0
  0
SPLINE
  5
68
330
1F
100
AcDbEntity
  8
Layer 1
 62
   230
100
AcDbSpline
210
0.0
220
0.0
230
1.0
 70
    11
 71
     3
 72
    36
 73
    32
 74
     0
 42
0.0000000001
 43
0.0000000001
 40
0.0
 40
0.0
 40
0.0
 40
0.0
 40
0.1111111111111111
 40
0.1111111111111111
 40
0.1111111111111111
 40
0.1111111111111111
 40
0.2222222222222222
 40
0.2222222222222222
 40
0.2222222222222222
 40
0.2222222222222222
 40
0.3333333333333333
 40
0.3333333333333333
 40
0.3333333333333333
 40
0.3333333333333333
 40
0.4444444444444444
 40
0.4444444444444444
 40
0.4444444444444444
 40
0.4444444444444444
 40
0.5555555555555556
 40
0.5555555555555556
 40
0.5555555555555556
 40
0.5555555555555556
 40
0.6666666666666666
 40
0.6666666666666666
 40
0.6666666666666666
 40
0.6666666666666666
 40
0.7777777777777778
 40
0.7777777777777778
 40
0.7777777777777778
 40
0.7777777777777778
 40
1.0
 40
1.0
 40
1.0
 40
1.0
 10
-7.11169
 20
-9.02416
 30
0.0
 10
-7.11169
 20
-9.0135
 30
0.0
 10
-7.11451
 20
-9.005
 30
0.0
 10
-7.12019
 20
-8.99876
 30
0.0
 10
-7.12019
 20
-8.99876
 30
0.0
 10
-7.1259
 20
-8.99248
 30
0.0
 10
-7.13271
 20
-8.98934
 30
0.0
 10
-7.14072
 20
-8.98934
 30
0.0
 10
-7.14072
 20
-8.98934
 30
0.0
 10
-7.14897
 20
-8.98934
 30
0.0
 10
-7.15617
 20
-8.99272
 30
0.0
 10
-7.16231
 20
-8.99946
 30
0.0
 10
-7.16231
 20
-8.99946
 30
0.0
 10
-7.16845
 20
-9.00624
 30
0.0
 10
-7.17152
 20
-9.01498
 30
0.0
 10
-7.17152
 20
-9.02571
 30
0.0
 10
-7.17152
 20
-9.02571
 30
0.0
 10
-7.17152
 20
-9.03537
 30
0.0
 10
-7.16859
 20
-9.04321
 30
0.0
 10
-7.16277
 20
-9.04924
 30
0.0
 10
-7.16277
 20
-9.04924
 30
0.0
 10
-7.15695
 20
-9.05527
 30
0.0
 10
-7.14979
 20
-9.05827
 30
0.0
 10
-7.14125
 20
-9.05827
 30
0.0
 10
-7.14125
 20
-9.05827
 30
0.0
 10
-7.13261
 20
-9.05827
 30
0.0
 10
-7.12555
 20
-9.05527
 30
0.0
 10
-7.12001
 20
-9.04924
 30
0.0
 10
-7.12001
 20
-9.04924
 30
0.0
 10
-7.11444
 20
-9.04321
 30
0.0
 10
-7.11169
 20
-9.03484
 30
0.0
 10
-7.11169
 20
-9.02416
 30
0.0
  0
SPLINE
  5
69
330
1F
100
AcDbEntity
  8
Layer 1
 62
   230
100
AcDbSpline
210
0.0
220
0.0
230
1.0
 70
    11
 71
     3
 72
    40
 73
    36
 74
     0
 42
0.0000000001
 43
0.0000000001
 40
0.0
 40
0.0
 40
0.0
 40
0.0
 40
0.1
 40
0.1
 40
0.1
 40
0.1
 40
0.2
 40
0.2
 40
0.2
 40
0.2
 40
0.3
 40
0.3
 40
0.3
 40
0.3
 40
0.4
 40
0.4
 40
0.4
 40
0.4
 40
0.5
 40
0.5
 40
0.5
 40
0.5
 40
0.6
 40
0.6
 40
0.6
 40
0.6
 40
0.7
 40
0.7
 40
0.7
 40
0.7
 40
0.8
 40
0.8
 40
0.8
 40
0.8
 40
1.0
 40
1.0
 40
1.0
 40
1.0
 10
-5.69056
 20
-9.12607
 30
0.0
 10
-5.69056
 20
-9.12607
 30
0.0
 10
-5.70915
 20
-9.12607
 30
0.0
 10
-5.70915
 20
-9.12607
 30
0.0
 10
-5.70915
 20
-9.12607
 30
0.0
 10
-5.70915
 20
-9.12607
 30
0.0
 10
-5.70915
 20
-9.00754
 30
0.0
 10
-5.70915
 20
-9.00754
 30
0.0
 10
-5.70915
 20
-9.00754
 30
0.0
 10
-5.71363
 20
-9.01181
 30
0.0
 10
-5.71948
 20
-9.01608
 30
0.0
 10
-5.72675
 20
-9.02035
 30
0.0
 10
-5.72675
 20
-9.02035
 30
0.0
 10
-5.73405
 20
-9.02461
 30
0.0
 10
-5.74058
 20
-9.02782
 30
0.0
 10
-5.74636
 20
-9.02994
 30
0.0
 10
-5.74636
 20
-9.02994
 30
0.0
 10
-5.74636
 20
-9.02994
 30
0.0
 10
-5.74636
 20
-9.01199
 30
0.0
 10
-5.74636
 20
-9.01199
 30
0.0
 10
-5.74636
 20
-9.01199
 30
0.0
 10
-5.73596
 20
-9.00708
 30
0.0
 10
-5.72686
 20
-9.00116
 30
0.0
 10
-5.71906
 20
-8.99421
 30
0.0
 10
-5.71906
 20
-8.99421
 30
0.0
 10
-5.7113
 20
-8.98722
 30
0.0
 10
-5.70576
 20
-8.98048
 30
0.0
 10
-5.70252
 20
-8.97392
 30
0.0
 10
-5.70252
 20
-8.97392
 30
0.0
 10
-5.70252
 20
-8.97392
 30
0.0
 10
-5.69056
 20
-8.97392
 30
0.0
 10
-5.69056
 20
-8.97392
 30
0.0
 10
-5.69056
 20
-8.97392
 30
0.0
 10
-5.69056
 20
-8.97392
 30
0.0
 10
-5.69056
 20
-9.12607
 30
0.0
 10
-5.69056
 20
-9.12607
 30
0.0
  0
SPLINE
  5
6A
330
1F
100
AcDbEntity
  8
Layer 1
 62
   230
100
AcDbSpline
210
0.0
220
0.0
230
1.0
 70
    11
 71
     3
 72
    52
 73
    48
 74
     0
 42
0.0000000001
 43
0.0000000001
 40
0.0
 40
0.0
 40
0.0
 40
0.0
 40
0.0769230769230769
 40
0.0769230769230769
 40
0.0769230769230769
 40
0.0769230769230769
 40
0.1538461538461539
 40
0.1538461538461539
 40
0.1538461538461539
 40
0.1538461538461539
 40
0.2307692307692308
 40
0.2307692307692308
 40
0.2307692307692308
 40
0.2307692307692308
 40
0.3076923076923077
 40
0.3076923076923077
 40
0.3076923076923077
 40
0.3076923076923077
 40
0.3846153846153846
 40
0.3846153846153846
 40
0.3846153846153846
 40
0.3846153846153846
 40
0.4615384615384616
 40
0.4615384615384616
 40
0.4615384615384616
 40
0.4615384615384616
 40
0.5384615384615384
 40
0.5384615384615384
 40
0.5384615384615384
 40
0.5384615384615384
 40
0.6153846153846154
 40
0.6153846153846154
 40
0.6153846153846154
 40
0.6153846153846154
 40
0.6923076923076923
 40
0.6923076923076923
 40
0.6923076923076923
 40
0.6923076923076923
 40
0.7692307692307693
 40
0.7692307692307693
 40
0.7692307692307693
 40
0.7692307692307693
 40
0.8461538461538461
 40
0.8461538461538461
 40
0.8461538461538461
 40
0.8461538461538461
 40
1.0
 40
1.0
 40
1.0
 40
1.0
 10
-5.6429
 20
-9.05135
 30
0.0
 10
-5.6429
 20
-9.03343
 30
0.0
 10
-5.64106
 20
-9.01901
 30
0.0
 10
-5.63736
 20
-9.0081
 30
0.0
 10
-5.63736
 20
-9.0081
 30
0.0
 10
-5.63369
 20
-8.99717
 30
0.0
 10
-5.62819
 20
-8.98874
 30
0.0
 10
-5.62092
 20
-8.98281
 30
0.0
 10
-5.62092
 20
-8.98281
 30
0.0
 10
-5.61365
 20
-8.97688
 30
0.0
 10
-5.60452
 20
-8.97392
 30
0.0
 10
-5.59351
 20
-8.97392
 30
0.0
 10
-5.59351
 20
-8.97392
 30
0.0
 10
-5.58536
 20
-8.97392
 30
0.0
 10
-5.57823
 20
-8.97558
 30
0.0
 10
-5.5721
 20
-8.97886
 30
0.0
 10
-5.5721
 20
-8.97886
 30
0.0
 10
-5.56596
 20
-8.98211
 30
0.0
 10
-5.56091
 20
-8.98683
 30
0.0
 10
-5.55689
 20
-8.99301
 30
0.0
 10
-5.55689
 20
-8.99301
 30
0.0
 10
-5.55291
 20
-8.99918
 30
0.0
 10
-5.54977
 20
-9.00669
 30
0.0
 10
-5.54751
 20
-9.01555
 30
0.0
 10
-5.54751
 20
-9.01555
 30
0.0
 10
-5.54522
 20
-9.0244
 30
0.0
 10
-5.54409
 20
-9.03633
 30
0.0
 10
-5.54409
 20
-9.05135
 30
0.0
 10
-5.54409
 20
-9.05135
 30
0.0
 10
-5.54409
 20
-9.06913
 30
0.0
 10
-5.54592
 20
-9.08346
 30
0.0
 10
-5.54955
 20
-9.09439
 30
0.0
 10
-5.54955
 20
-9.09439
 30
0.0
 10
-5.55322
 20
-9.10533
 30
0.0
 10
-5.55869
 20
-9.11376
 30
0.0
 10
-5.56596
 20
-9.11972
 30
0.0
 10
-5.56596
 20
-9.11972
 30
0.0
 10
-5.57322
 20
-9.12568
 30
0.0
 10
-5.5824
 20
-9.12865
 30
0.0
 10
-5.59351
 20
-9.12865
 30
0.0
 10
-5.59351
 20
-9.12865
 30
0.0
 10
-5.60811
 20
-9.12865
 30
0.0
 10
-5.61958
 20
-9.12342
 30
0.0
 10
-5.6279
 20
-9.11295
 30
0.0
 10
-5.6279
 20
-9.11295
 30
0.0
 10
-5.63789
 20
-9.10035
 30
0.0
 10
-5.6429
 20
-9.07979
 30
0.0
 10
-5.6429
 20
-9.05135
 30
0.0
  0
SPLINE
  5
6B
330
1F
100
AcDbEntity
  8
Layer 1
 62
   230
100
AcDbSpline
210
0.0
220
0.0
230
1.0
 70
    11
 71
     3
 72
    36
 73
    32
 74
     0
 42
0.0000000001
 43
0.0000000001
 40
0.0
 40
0.0
 40
0.0
 40
0.0
 40
0.1111111111111111
 40
0.1111111111111111
 40
0.1111111111111111
 40
0.1111111111111111
 40
0.2222222222222222
 40
0.2222222222222222
 40
0.2222222222222222
 40
0.2222222222222222
 40
0.3333333333333333
 40
0.3333333333333333
 40
0.3333333333333333
 40
0.3333333333333333
 40
0.4444444444444444
 40
0.4444444444444444
 40
0.4444444444444444
 40
0.4444444444444444
 40
0.5555555555555556
 40
0.5555555555555556
 40
0.5555555555555556
 40
0.5555555555555556
 40
0.6666666666666666
 40
0.6666666666666666
 40
0.6666666666666666
 40
0.6666666666666666
 40
0.7777777777777778
 40
0.7777777777777778
 40
0.7777777777777778
 40
0.7777777777777778
 40
1.0
 40
1.0
 40
1.0
 40
1.0
 10
-5.62378
 20
-9.05135
 30
0.0
 10
-5.62378
 20
-9.07622
 30
0.0
 10
-5.62085
 20
-9.09277
 30
0.0
 10
-5.61503
 20
-9.10102
 30
0.0
 10
-5.61503
 20
-9.10102
 30
0.0
 10
-5.60921
 20
-9.10924
 30
0.0
 10
-5.60205
 20
-9.11337
 30
0.0
 10
-5.59351
 20
-9.11337
 30
0.0
 10
-5.59351
 20
-9.11337
 30
0.0
 10
-5.58494
 20
-9.11337
 30
0.0
 10
-5.57778
 20
-9.10921
 30
0.0
 10
-5.57195
 20
-9.10095
 30
0.0
 10
-5.57195
 20
-9.10095
 30
0.0
 10
-5.56613
 20
-9.0927
 30
0.0
 10
-5.56321
 20
-9.07615
 30
0.0
 10
-5.56321
 20
-9.05135
 30
0.0
 10
-5.56321
 20
-9.05135
 30
0.0
 10
-5.56321
 20
-9.02641
 30
0.0
 10
-5.56613
 20
-9.00983
 30
0.0
 10
-5.57195
 20
-9.00165
 30
0.0
 10
-5.57195
 20
-9.00165
 30
0.0
 10
-5.57778
 20
-8.99343
 30
0.0
 10
-5.58501
 20
-8.98934
 30
0.0
 10
-5.59369
 20
-8.98934
 30
0.0
 10
-5.59369
 20
-8.98934
 30
0.0
 10
-5.60226
 20
-8.98934
 30
0.0
 10
-5.60907
 20
-8.99297
 30
0.0
 10
-5.61418
 20
-9.0002
 30
0.0
 10
-5.61418
 20
-9.0002
 30
0.0
 10
-5.62057
 20
-9.00941
 30
0.0
 10
-5.62378
 20
-9.02648
 30
0.0
 10
-5.62378
 20
-9.05135
 30
0.0
  0
SPLINE
  5
6C
330
1F
100
AcDbEntity
  8
Layer 1
 62
   230
100
AcDbSpline
210
0.0
220
0.0
230
1.0
 70
    11
 71
     3
 72
    40
 73
    36
 74
     0
 42
0.0000000001
 43
0.0000000001
 40
0.0
 40
0.0
 40
0.0
 40
0.0
 40
0.1
 40
0.1
 40
0.1
 40
0.1
 40
0.2
 40
0.2
 40
0.2
 40
0.2
 40
0.3
 40
0.3
 40
0.3
 40
0.3
 40
0.4
 40
0.4
 40
0.4
 40
0.4
 40
0.5
 40
0.5
 40
0.5
 40
0.5
 40
0.6
 40
0.6
 40
0.6
 40
0.6
 40
0.7
 40
0.7
 40
0.7
 40
0.7
 40
0.8
 40
0.8
 40
0.8
 40
0.8
 40
1.0
 40
1.0
 40
1.0
 40
1.0
 10
-4.26058
 20
-9.12607
 30
0.0
 10
-4.26058
 20
-9.12607
 30
0.0
 10
-4.27917
 20
-9.12607
 30
0.0
 10
-4.27917
 20
-9.12607
 30
0.0
 10
-4.27917
 20
-9.12607
 30
0.0
 10
-4.27917
 20
-9.12607
 30
0.0
 10
-4.27917
 20
-9.00754
 30
0.0
 10
-4.27917
 20
-9.00754
 30
0.0
 10
-4.27917
 20
-9.00754
 30
0.0
 10
-4.28365
 20
-9.01181
 30
0.0
 10
-4.2895
 20
-9.01608
 30
0.0
 10
-4.29677
 20
-9.02035
 30
0.0
 10
-4.29677
 20
-9.02035
 30
0.0
 10
-4.30407
 20
-9.02461
 30
0.0
 10
-4.3106
 20
-9.02782
 30
0.0
 10
-4.31638
 20
-9.02994
 30
0.0
 10
-4.31638
 20
-9.02994
 30
0.0
 10
-4.31638
 20
-9.02994
 30
0.0
 10
-4.31638
 20
-9.01199
 30
0.0
 10
-4.31638
 20
-9.01199
 30
0.0
 10
-4.31638
 20
-9.01199
 30
0.0
 10
-4.30598
 20
-9.00708
 30
0.0
 10
-4.29688
 20
-9.00116
 30
0.0
 10
-4.28908
 20
-8.99421
 30
0.0
 10
-4.28908
 20
-8.99421
 30
0.0
 10
-4.28132
 20
-8.98722
 30
0.0
 10
-4.27578
 20
-8.98048
 30
0.0
 10
-4.27254
 20
-8.97392
 30
0.0
 10
-4.27254
 20
-8.97392
 30
0.0
 10
-4.27254
 20
-8.97392
 30
0.0
 10
-4.26058
 20
-8.97392
 30
0.0
 10
-4.26058
 20
-8.97392
 30
0.0
 10
-4.26058
 20
-8.97392
 30
0.0
 10
-4.26058
 20
-8.97392
 30
0.0
 10
-4.26058
 20
-9.12607
 30
0.0
 10
-4.26058
 20
-9.12607
 30
0.0
  0
SPLINE
  5
6D
330
1F
100
AcDbEntity
  8
Layer 1
 62
   230
100
AcDbSpline
210
0.0
220
0.0
230
1.0
 70
    11
 71
     3
 72
    40
 73
    36
 74
     0
 42
0.0000000001
 43
0.0000000001
 40
0.0
 40
0.0
 40
0.0
 40
0.0
 40
0.1
 40
0.1
 40
0.1
 40
0.1
 40
0.2
 40
0.2
 40
0.2
 40
0.2
 40
0.3
 40
0.3
 40
0.3
 40
0.3
 40
0.4
 40
0.4
 40
0.4
 40
0.4
 40
0.5
 40
0.5
 40
0.5
 40
0.5
 40
0.6
 40
0.6
 40
0.6
 40
0.6
 40
0.7
 40
0.7
 40
0.7
 40
0.7
 40
0.8
 40
0.8
 40
0.8
 40
0.8
 40
1.0
 40
1.0
 40
1.0
 40
1.0
 10
-4.15856
 20
-9.12607
 30
0.0
 10
-4.15856
 20
-9.12607
 30
0.0
 10
-4.17715
 20
-9.12607
 30
0.0
 10
-4.17715
 20
-9.12607
 30
0.0
 10
-4.17715
 20
-9.12607
 30
0.0
 10
-4.17715
 20
-9.12607
 30
0.0
 10
-4.17715
 20
-9.00754
 30
0.0
 10
-4.17715
 20
-9.00754
 30
0.0
 10
-4.17715
 20
-9.00754
 30
0.0
 10
-4.18163
 20
-9.01181
 30
0.0
 10
-4.18748
 20
-9.01608
 30
0.0
 10
-4.19475
 20
-9.02035
 30
0.0
 10
-4.19475
 20
-9.02035
 30
0.0
 10
-4.20205
 20
-9.02461
 30
0.0
 10
-4.20858
 20
-9.02782
 30
0.0
 10
-4.21436
 20
-9.02994
 30
0.0
 10
-4.21436
 20
-9.02994
 30
0.0
 10
-4.21436
 20
-9.02994
 30
0.0
 10
-4.21436
 20
-9.01199
 30
0.0
 10
-4.21436
 20
-9.01199
 30
0.0
 10
-4.21436
 20
-9.01199
 30
0.0
 10
-4.20396
 20
-9.00708
 30
0.0
 10
-4.19486
 20
-9.00116
 30
0.0
 10
-4.18706
 20
-8.99421
 30
0.0
 10
-4.18706
 20
-8.99421
 30
0.0
 10
-4.1793
 20
-8.98722
 30
0.0
 10
-4.17376
 20
-8.98048
 30
0.0
 10
-4.17052
 20
-8.97392
 30
0.0
 10
-4.17052
 20
-8.97392
 30
0.0
 10
-4.17052
 20
-8.97392
 30
0.0
 10
-4.15856
 20
-8.97392
 30
0.0
 10
-4.15856
 20
-8.97392
 30
0.0
 10
-4.15856
 20
-8.97392
 30
0.0
 10
-4.15856
 20
-8.97392
 30
0.0
 10
-4.15856
 20
-9.12607
 30
0.0
 10
-4.15856
 20
-9.12607
 30
0.0
  0
SPLINE
  5
6E
330
1F
100
AcDbEntity
  8
Layer 1
 62
   230
100
AcDbSpline
210
0.0
220
0.0
230
1.0
 70
    11
 71
     3
 72
    40
 73
    36
 74
     0
 42
0.0000000001
 43
0.0000000001
 40
0.0
 40
0.0
 40
0.0
 40
0.0
 40
0.1
 40
0.1
 40
0.1
 40
0.1
 40
0.2
 40
0.2
 40
0.2
 40
0.2
 40
0.3
 40
0.3
 40
0.3
 40
0.3
 40
0.4
 40
0.4
 40
0.4
 40
0.4
 40
0.5
 40
0.5
 40
0.5
 40
0.5
 40
0.6
 40
0.6
 40
0.6
 40
0.6
 40
0.7
 40
0.7
 40
0.7
 40
0.7
 40
0.8
 40
0.8
 40
0.8
 40
0.8
 40
1.0
 40
1.0
 40
1.0
 40
1.0
 10
-2.83058
 20
-9.12607
 30
0.0
 10
-2.83058
 20
-9.12607
 30
0.0
 10
-2.84917
 20
-9.12607
 30
0.0
 10
-2.84917
 20
-9.12607
 30
0.0
 10
-2.84917
 20
-9.12607
 30
0.0
 10
-2.84917
 20
-9.12607
 30
0.0
 10
-2.84917
 20
-9.00754
 30
0.0
 10
-2.84917
 20
-9.00754
 30
0.0
 10
-2.84917
 20
-9.00754
 30
0.0
 10
-2.85365
 20
-9.01181
 30
0.0
 10
-2.8595
 20
-9.01608
 30
0.0
 10
-2.86677
 20
-9.02035
 30
0.0
 10
-2.86677
 20
-9.02035
 30
0.0
 10
-2.87407
 20
-9.02461
 30
0.0
 10
-2.8806
 20
-9.02782
 30
0.0
 10
-2.88638
 20
-9.02994
 30
0.0
 10
-2.88638
 20
-9.02994
 30
0.0
 10
-2.88638
 20
-9.02994
 30
0.0
 10
-2.88638
 20
-9.01199
 30
0.0
 10
-2.88638
 20
-9.01199
 30
0.0
 10
-2.88638
 20
-9.01199
 30
0.0
 10
-2.87598
 20
-9.00708
 30
0.0
 10
-2.86688
 20
-9.00116
 30
0.0
 10
-2.85908
 20
-8.99421
 30
0.0
 10
-2.85908
 20
-8.99421
 30
0.0
 10
-2.85132
 20
-8.98722
 30
0.0
 10
-2.84578
 20
-8.98048
 30
0.0
 10
-2.84254
 20
-8.97392
 30
0.0
 10
-2.84254
 20
-8.97392
 30
0.0
 10
-2.84254
 20
-8.97392
 30
0.0
 10
-2.83058
 20
-8.97392
 30
0.0
 10
-2.83058
 20
-8.97392
 30
0.0
 10
-2.83058
 20
-8.97392
 30
0.0
 10
-2.83058
 20
-8.97392
 30
0.0
 10
-2.83058
 20
-9.12607
 30
0.0
 10
-2.83058
 20
-9.12607
 30
0.0
  0
SPLINE
  5
6F
330
1F
100
AcDbEntity
  8
Layer 1
 62
   230
100
AcDbSpline
210
0.0
220
0.0
230
1.0
 70
    11
 71
     3
 72
    92
 73
    88
 74
     0
 42
0.0000000001
 43
0.0000000001
 40
0.0
 40
0.0
 40
0.0
 40
0.0
 40
0.0434782608695652
 40
0.0434782608695652
 40
0.0434782608695652
 40
0.0434782608695652
 40
0.0869565217391304
 40
0.0869565217391304
 40
0.0869565217391304
 40
0.0869565217391304
 40
0.1304347826086956
 40
0.1304347826086956
 40
0.1304347826086956
 40
0.1304347826086956
 40
0.1739130434782609
 40
0.1739130434782609
 40
0.1739130434782609
 40
0.1739130434782609
 40
0.2173913043478261
 40
0.2173913043478261
 40
0.2173913043478261
 40
0.2173913043478261
 40
0.2608695652173913
 40
0.2608695652173913
 40
0.2608695652173913
 40
0.2608695652173913
 40
0.3043478260869565
 40
0.3043478260869565
 40
0.3043478260869565
 40
0.3043478260869565
 40
0.3478260869565217
 40
0.3478260869565217
 40
0.3478260869565217
 40
0.3478260869565217
 40
0.391304347826087
 40
0.391304347826087
 40
0.391304347826087
 40
0.391304347826087
 40
0.4347826086956522
 40
0.4347826086956522
 40
0.4347826086956522
 40
0.4347826086956522
 40
0.4782608695652174
 40
0.4782608695652174
 40
0.4782608695652174
 40
0.4782608695652174
 40
0.5217391304347826
 40
0.5217391304347826
 40
0.5217391304347826
 40
0.5217391304347826
 40
0.5652173913043478
 40
0.5652173913043478
 40
0.5652173913043478
 40
0.5652173913043478
 40
0.6086956521739131
 40
0.6086956521739131
 40
0.6086956521739131
 40
0.6086956521739131
 40
0.6521739130434783
 40
0.6521739130434783
 40
0.6521739130434783
 40
0.6521739130434783
 40
0.6956521739130435
 40
0.6956521739130435
 40
0.6956521739130435
 40
0.6956521739130435
 40
0.7391304347826086
 40
0.7391304347826086
 40
0.7391304347826086
 40
0.7391304347826086
 40
0.782608695652174
 40
0.782608695652174
 40
0.782608695652174
 40
0.782608695652174
 40
0.8260869565217391
 40
0.8260869565217391
 40
0.8260869565217391
 40
0.8260869565217391
 40
0.8695652173913043
 40
0.8695652173913043
 40
0.8695652173913043
 40
0.8695652173913043
 40
0.9130434782608695
 40
0.9130434782608695
 40
0.9130434782608695
 40
0.9130434782608695
 40
1.0
 40
1.0
 40
1.0
 40
1.0
 10
-2.68513
 20
-9.10818
 30
0.0
 10
-2.68513
 20
-9.10818
 30
0.0
 10
-2.68513
 20
-9.12607
 30
0.0
 10
-2.68513
 20
-9.12607
 30
0.0
 10
-2.68513
 20
-9.12607
 30
0.0
 10
-2.68513
 20
-9.12607
 30
0.0
 10
-2.78528
 20
-9.12607
 30
0.0
 10
-2.78528
 20
-9.12607
 30
0.0
 10
-2.78528
 20
-9.12607
 30
0.0
 10
-2.78542
 20
-9.12159
 30
0.0
 10
-2.78472
 20
-9.11729
 30
0.0
 10
-2.78313
 20
-9.11316
 30
0.0
 10
-2.78313
 20
-9.11316
 30
0.0
 10
-2.78059
 20
-9.10632
 30
0.0
 10
-2.7765
 20
-9.09961
 30
0.0
 10
-2.77089
 20
-9.09298
 30
0.0
 10
-2.77089
 20
-9.09298
 30
0.0
 10
-2.76524
 20
-9.08638
 30
0.0
 10
-2.75713
 20
-9.07873
 30
0.0
 10
-2.74655
 20
-9.07005
 30
0.0
 10
-2.74655
 20
-9.07005
 30
0.0
 10
-2.73007
 20
-9.05654
 30
0.0
 10
-2.71892
 20
-9.04585
 30
0.0
 10
-2.71314
 20
-9.03795
 30
0.0
 10
-2.71314
 20
-9.03795
 30
0.0
 10
-2.70735
 20
-9.03008
 30
0.0
 10
-2.70446
 20
-9.0226
 30
0.0
 10
-2.70446
 20
-9.01558
 30
0.0
 10
-2.70446
 20
-9.01558
 30
0.0
 10
-2.70446
 20
-9.00821
 30
0.0
 10
-2.70711
 20
-9.002
 30
0.0
 10
-2.71236
 20
-8.99692
 30
0.0
 10
-2.71236
 20
-8.99692
 30
0.0
 10
-2.71765
 20
-8.99188
 30
0.0
 10
-2.72453
 20
-8.98934
 30
0.0
 10
-2.733
 20
-8.98934
 30
0.0
 10
-2.733
 20
-8.98934
 30
0.0
 10
-2.74196
 20
-8.98934
 30
0.0
 10
-2.74912
 20
-8.99202
 30
0.0
 10
-2.75448
 20
-8.99742
 30
0.0
 10
-2.75448
 20
-8.99742
 30
0.0
 10
-2.75988
 20
-9.00278
 30
0.0
 10
-2.7626
 20
-9.01022
 30
0.0
 10
-2.76267
 20
-9.01971
 30
0.0
 10
-2.76267
 20
-9.01971
 30
0.0
 10
-2.76267
 20
-9.01971
 30
0.0
 10
-2.78179
 20
-9.01777
 30
0.0
 10
-2.78179
 20
-9.01777
 30
0.0
 10
-2.78179
 20
-9.01777
 30
0.0
 10
-2.78048
 20
-9.00348
 30
0.0
 10
-2.77554
 20
-8.99262
 30
0.0
 10
-2.76701
 20
-8.98514
 30
0.0
 10
-2.76701
 20
-8.98514
 30
0.0
 10
-2.75847
 20
-8.97766
 30
0.0
 10
-2.74697
 20
-8.97392
 30
0.0
 10
-2.73258
 20
-8.97392
 30
0.0
 10
-2.73258
 20
-8.97392
 30
0.0
 10
-2.71804
 20
-8.97392
 30
0.0
 10
-2.70654
 20
-8.97798
 30
0.0
 10
-2.69808
 20
-8.98602
 30
0.0
 10
-2.69808
 20
-8.98602
 30
0.0
 10
-2.68957
 20
-8.9941
 30
0.0
 10
-2.68534
 20
-9.00408
 30
0.0
 10
-2.68534
 20
-9.01601
 30
0.0
 10
-2.68534
 20
-9.01601
 30
0.0
 10
-2.68534
 20
-9.02207
 30
0.0
 10
-2.68658
 20
-9.02804
 30
0.0
 10
-2.68908
 20
-9.03389
 30
0.0
 10
-2.68908
 20
-9.03389
 30
0.0
 10
-2.69155
 20
-9.03975
 30
0.0
 10
-2.69568
 20
-9.04592
 30
0.0
 10
-2.70143
 20
-9.05238
 30
0.0
 10
-2.70143
 20
-9.05238
 30
0.0
 10
-2.70718
 20
-9.05887
 30
0.0
 10
-2.71674
 20
-9.06776
 30
0.0
 10
-2.73011
 20
-9.07905
 30
0.0
 10
-2.73011
 20
-9.07905
 30
0.0
 10
-2.74125
 20
-9.08843
 30
0.0
 10
-2.74842
 20
-9.09478
 30
0.0
 10
-2.75159
 20
-9.09813
 30
0.0
 10
-2.75159
 20
-9.09813
 30
0.0
 10
-2.75477
 20
-9.10145
 30
0.0
 10
-2.75738
 20
-9.1048
 30
0.0
 10
-2.75946
 20
-9.10818
 30
0.0
 10
-2.75946
 20
-9.10818
 30
0.0
 10
-2.75946
 20
-9.10818
 30
0.0
 10
-2.68513
 20
-9.10818
 30
0.0
 10
-2.68513
 20
-9.10818
 30
0.0
  0
SPLINE
  5
70
330
1F
100
AcDbEntity
  8
Layer 1
 62
   230
100
AcDbSpline
210
0.0
220
0.0
230
1.0
 70
    11
 71
     3
 72
    40
 73
    36
 74
     0
 42
0.0000000001
 43
0.0000000001
 40
0.0
 40
0.0
 40
0.0
 40
0.0
 40
0.1
 40
0.1
 40
0.1
 40
0.1
 40
0.2
 40
0.2
 40
0.2
 40
0.2
 40
0.3
 40
0.3
 40
0.3
 40
0.3
 40
0.4
 40
0.4
 40
0.4
 40
0.4
 40
0.5
 40
0.5
 40
0.5
 40
0.5
 40
0.6
 40
0.6
 40
0.6
 40
0.6
 40
0.7
 40
0.7
 40
0.7
 40
0.7
 40
0.8
 40
0.8
 40
0.8
 40
0.8
 40
1.0
 40
1.0
 40
1.0
 40
1.0
 10
-1.40054
 20
-9.12607
 30
0.0
 10
-1.40054
 20
-9.12607
 30
0.0
 10
-1.41913
 20
-9.12607
 30
0.0
 10
-1.41913
 20
-9.12607
 30
0.0
 10
-1.41913
 20
-9.12607
 30
0.0
 10
-1.41913
 20
-9.12607
 30
0.0
 10
-1.41913
 20
-9.00754
 30
0.0
 10
-1.41913
 20
-9.00754
 30
0.0
 10
-1.41913
 20
-9.00754
 30
0.0
 10
-1.42361
 20
-9.01181
 30
0.0
 10
-1.42946
 20
-9.01608
 30
0.0
 10
-1.43673
 20
-9.02035
 30
0.0
 10
-1.43673
 20
-9.02035
 30
0.0
 10
-1.44403
 20
-9.02461
 30
0.0
 10
-1.45056
 20
-9.02782
 30
0.0
 10
-1.45634
 20
-9.02994
 30
0.0
 10
-1.45634
 20
-9.02994
 30
0.0
 10
-1.45634
 20
-9.02994
 30
0.0
 10
-1.45634
 20
-9.01199
 30
0.0
 10
-1.45634
 20
-9.01199
 30
0.0
 10
-1.45634
 20
-9.01199
 30
0.0
 10
-1.44594
 20
-9.00708
 30
0.0
 10
-1.43684
 20
-9.00116
 30
0.0
 10
-1.42904
 20
-8.99421
 30
0.0
 10
-1.42904
 20
-8.99421
 30
0.0
 10
-1.42128
 20
-8.98722
 30
0.0
 10
-1.41574
 20
-8.98048
 30
0.0
 10
-1.4125
 20
-8.97392
 30
0.0
 10
-1.4125
 20
-8.97392
 30
0.0
 10
-1.4125
 20
-8.97392
 30
0.0
 10
-1.40054
 20
-8.97392
 30
0.0
 10
-1.40054
 20
-8.97392
 30
0.0
 10
-1.40054
 20
-8.97392
 30
0.0
 10
-1.40054
 20
-8.97392
 30
0.0
 10
-1.40054
 20
-9.12607
 30
0.0
 10
-1.40054
 20
-9.12607
 30
0.0
  0
SPLINE
  5
71
330
1F
100
AcDbEntity
  8
Layer 1
 62
   230
100
AcDbSpline
210
0.0
220
0.0
230
1.0
 70
    11
 71
     3
 72
   124
 73
   120
 74
     0
 42
0.0000000001
 43
0.0000000001
 40
0.0
 40
0.0
 40
0.0
 40
0.0
 40
0.032258064516129
 40
0.032258064516129
 40
0.032258064516129
 40
0.032258064516129
 40
0.0645161290322581
 40
0.0645161290322581
 40
0.0645161290322581
 40
0.0645161290322581
 40
0.0967741935483871
 40
0.0967741935483871
 40
0.0967741935483871
 40
0.0967741935483871
 40
0.1290322580645161
 40
0.1290322580645161
 40
0.1290322580645161
 40
0.1290322580645161
 40
0.1612903225806452
 40
0.1612903225806452
 40
0.1612903225806452
 40
0.1612903225806452
 40
0.1935483870967742
 40
0.1935483870967742
 40
0.1935483870967742
 40
0.1935483870967742
 40
0.2258064516129032
 40
0.2258064516129032
 40
0.2258064516129032
 40
0.2258064516129032
 40
0.2580645161290323
 40
0.2580645161290323
 40
0.2580645161290323
 40
0.2580645161290323
 40
0.2903225806451613
 40
0.2903225806451613
 40
0.2903225806451613
 40
0.2903225806451613
 40
0.3225806451612903
 40
0.3225806451612903
 40
0.3225806451612903
 40
0.3225806451612903
 40
0.3548387096774194
 40
0.3548387096774194
 40
0.3548387096774194
 40
0.3548387096774194
 40
0.3870967741935484
 40
0.3870967741935484
 40
0.3870967741935484
 40
0.3870967741935484
 40
0.4193548387096774
 40
0.4193548387096774
 40
0.4193548387096774
 40
0.4193548387096774
 40
0.4516129032258064
 40
0.4516129032258064
 40
0.4516129032258064
 40
0.4516129032258064
 40
0.4838709677419355
 40
0.4838709677419355
 40
0.4838709677419355
 40
0.4838709677419355
 40
0.5161290322580645
 40
0.5161290322580645
 40
0.5161290322580645
 40
0.5161290322580645
 40
0.5483870967741935
 40
0.5483870967741935
 40
0.5483870967741935
 40
0.5483870967741935
 40
0.5806451612903226
 40
0.5806451612903226
 40
0.5806451612903226
 40
0.5806451612903226
 40
0.6129032258064516
 40
0.6129032258064516
 40
0.6129032258064516
 40
0.6129032258064516
 40
0.6451612903225806
 40
0.6451612903225806
 40
0.6451612903225806
 40
0.6451612903225806
 40
0.6774193548387096
 40
0.6774193548387096
 40
0.6774193548387096
 40
0.6774193548387096
 40
0.7096774193548387
 40
0.7096774193548387
 40
0.7096774193548387
 40
0.7096774193548387
 40
0.7419354838709677
 40
0.7419354838709677
 40
0.7419354838709677
 40
0.7419354838709677
 40
0.7741935483870968
 40
0.7741935483870968
 40
0.7741935483870968
 40
0.7741935483870968
 40
0.8064516129032258
 40
0.8064516129032258
 40
0.8064516129032258
 40
0.8064516129032258
 40
0.8387096774193549
 40
0.8387096774193549
 40
0.8387096774193549
 40
0.8387096774193549
 40
0.8709677419354839
 40
0.8709677419354839
 40
0.8709677419354839
 40
0.8709677419354839
 40
0.9032258064516129
 40
0.9032258064516129
 40
0.9032258064516129
 40
0.9032258064516129
 40
0.9354838709677419
 40
0.9354838709677419
 40
0.9354838709677419
 40
0.9354838709677419
 40
1.0
 40
1.0
 40
1.0
 40
1.0
 10
-1.35277
 20
-9.08607
 30
0.0
 10
-1.35277
 20
-9.08607
 30
0.0
 10
-1.33418
 20
-9.0836
 30
0.0
 10
-1.33418
 20
-9.0836
 30
0.0
 10
-1.33418
 20
-9.0836
 30
0.0
 10
-1.33203
 20
-9.09414
 30
0.0
 10
-1.32839
 20
-9.10173
 30
0.0
 10
-1.32328
 20
-9.10639
 30
0.0
 10
-1.32328
 20
-9.10639
 30
0.0
 10
-1.31813
 20
-9.11104
 30
0.0
 10
-1.31188
 20
-9.11337
 30
0.0
 10
-1.30451
 20
-9.11337
 30
0.0
 10
-1.30451
 20
-9.11337
 30
0.0
 10
-1.29576
 20
-9.11337
 30
0.0
 10
-1.28836
 20
-9.11034
 30
0.0
 10
-1.28232
 20
-9.10427
 30
0.0
 10
-1.28232
 20
-9.10427
 30
0.0
 10
-1.27633
 20
-9.0982
 30
0.0
 10
-1.27329
 20
-9.09069
 30
0.0
 10
-1.27329
 20
-9.08173
 30
0.0
 10
-1.27329
 20
-9.08173
 30
0.0
 10
-1.27329
 20
-9.07319
 30
0.0
 10
-1.27608
 20
-9.06613
 30
0.0
 10
-1.28165
 20
-9.0606
 30
0.0
 10
-1.28165
 20
-9.0606
 30
0.0
 10
-1.28726
 20
-9.05506
 30
0.0
 10
-1.29435
 20
-9.05227
 30
0.0
 10
-1.30296
 20
-9.05227
 30
0.0
 10
-1.30296
 20
-9.05227
 30
0.0
 10
-1.30649
 20
-9.05227
 30
0.0
 10
-1.31086
 20
-9.05298
 30
0.0
 10
-1.31608
 20
-9.05435
 30
0.0
 10
-1.31608
 20
-9.05435
 30
0.0
 10
-1.31608
 20
-9.05435
 30
0.0
 10
-1.314
 20
-9.03802
 30
0.0
 10
-1.314
 20
-9.03802
 30
0.0
 10
-1.314
 20
-9.03802
 30
0.0
 10
-1.31277
 20
-9.03816
 30
0.0
 10
-1.31178
 20
-9.03823
 30
0.0
 10
-1.311
 20
-9.03823
 30
0.0
 10
-1.311
 20
-9.03823
 30
0.0
 10
-1.3031
 20
-9.03823
 30
0.0
 10
-1.29597
 20
-9.03615
 30
0.0
 10
-1.28963
 20
-9.03202
 30
0.0
 10
-1.28963
 20
-9.03202
 30
0.0
 10
-1.28328
 20
-9.0279
 30
0.0
 10
-1.2801
 20
-9.02151
 30
0.0
 10
-1.2801
 20
-9.0129
 30
0.0
 10
-1.2801
 20
-9.0129
 30
0.0
 10
-1.2801
 20
-9.00609
 30
0.0
 10
-1.28243
 20
-9.00041
 30
0.0
 10
-1.28705
 20
-8.99597
 30
0.0
 10
-1.28705
 20
-8.99597
 30
0.0
 10
-1.29167
 20
-8.99149
 30
0.0
 10
-1.29763
 20
-8.98923
 30
0.0
 10
-1.30494
 20
-8.98923
 30
0.0
 10
-1.30494
 20
-8.98923
 30
0.0
 10
-1.31217
 20
-8.98923
 30
0.0
 10
-1.3182
 20
-8.99152
 30
0.0
 10
-1.323
 20
-8.99604
 30
0.0
 10
-1.323
 20
-8.99604
 30
0.0
 10
-1.32783
 20
-9.00059
 30
0.0
 10
-1.33093
 20
-9.00743
 30
0.0
 10
-1.33231
 20
-9.01654
 30
0.0
 10
-1.33231
 20
-9.01654
 30
0.0
 10
-1.33231
 20
-9.01654
 30
0.0
 10
-1.3509
 20
-9.01322
 30
0.0
 10
-1.3509
 20
-9.01322
 30
0.0
 10
-1.3509
 20
-9.01322
 30
0.0
 10
-1.34864
 20
-9.00073
 30
0.0
 10
-1.34346
 20
-8.99107
 30
0.0
 10
-1.33541
 20
-8.98422
 30
0.0
 10
-1.33541
 20
-8.98422
 30
0.0
 10
-1.32734
 20
-8.97738
 30
0.0
 10
-1.31732
 20
-8.97392
 30
0.0
 10
-1.30532
 20
-8.97392
 30
0.0
 10
-1.30532
 20
-8.97392
 30
0.0
 10
-1.29707
 20
-8.97392
 30
0.0
 10
-1.28945
 20
-8.97572
 30
0.0
 10
-1.2825
 20
-8.97925
 30
0.0
 10
-1.2825
 20
-8.97925
 30
0.0
 10
-1.27555
 20
-8.98281
 30
0.0
 10
-1.27022
 20
-8.98764
 30
0.0
 10
-1.26652
 20
-8.99378
 30
0.0
 10
-1.26652
 20
-8.99378
 30
0.0
 10
-1.26285
 20
-8.99992
 30
0.0
 10
-1.26098
 20
-9.00641
 30
0.0
 10
-1.26098
 20
-9.01333
 30
0.0
 10
-1.26098
 20
-9.01333
 30
0.0
 10
-1.26098
 20
-9.01985
 30
0.0
 10
-1.26274
 20
-9.02581
 30
0.0
 10
-1.26627
 20
-9.03121
 30
0.0
 10
-1.26627
 20
-9.03121
 30
0.0
 10
-1.2698
 20
-9.03657
 30
0.0
 10
-1.27499
 20
-9.04084
 30
0.0
 10
-1.28186
 20
-9.04402
 30
0.0
 10
-1.28186
 20
-9.04402
 30
0.0
 10
-1.2729
 20
-9.04606
 30
0.0
 10
-1.26595
 20
-9.05037
 30
0.0
 10
-1.26098
 20
-9.05689
 30
0.0
 10
-1.26098
 20
-9.05689
 30
0.0
 10
-1.25604
 20
-9.06338
 30
0.0
 10
-1.25357
 20
-9.07153
 30
0.0
 10
-1.25357
 20
-9.0813
 30
0.0
 10
-1.25357
 20
-9.0813
 30
0.0
 10
-1.25357
 20
-9.09453
 30
0.0
 10
-1.25837
 20
-9.10575
 30
0.0
 10
-1.26804
 20
-9.11496
 30
0.0
 10
-1.26804
 20
-9.11496
 30
0.0
 10
-1.27767
 20
-9.12417
 30
0.0
 10
-1.28987
 20
-9.12875
 30
0.0
 10
-1.30462
 20
-9.12875
 30
0.0
 10
-1.30462
 20
-9.12875
 30
0.0
 10
-1.31792
 20
-9.12875
 30
0.0
 10
-1.32896
 20
-9.1248
 30
0.0
 10
-1.33774
 20
-9.11686
 30
0.0
 10
-1.33774
 20
-9.11686
 30
0.0
 10
-1.34653
 20
-9.10896
 30
0.0
 10
-1.35154
 20
-9.0987
 30
0.0
 10
-1.35277
 20
-9.08607
 30
0.0
  0
SPLINE
  5
72
330
1F
100
AcDbEntity
  8
Layer 1
 62
   230
100
AcDbSpline
210
0.0
220
0.0
230
1.0
 70
    11
 71
     3
 72
    40
 73
    36
 74
     0
 42
0.0000000001
 43
0.0000000001
 40
0.0
 40
0.0
 40
0.0
 40
0.0
 40
0.1
 40
0.1
 40
0.1
 40
0.1
 40
0.2
 40
0.2
 40
0.2
 40
0.2
 40
0.3
 40
0.3
 40
0.3
 40
0.3
 40
0.4
 40
0.4
 40
0.4
 40
0.4
 40
0.5
 40
0.5
 40
0.5
 40
0.5
 40
0.6
 40
0.6
 40
0.6
 40
0.6
 40
0.7
 40
0.7
 40
0.7
 40
0.7
 40
0.8
 40
0.8
 40
0.8
 40
0.8
 40
1.0
 40
1.0
 40
1.0
 40
1.0
 10
-7.12058
 20
-10.55605
 30
0.0
 10
-7.12058
 20
-10.55605
 30
0.0
 10
-7.13917
 20
-10.55605
 30
0.0
 10
-7.13917
 20
-10.55605
 30
0.0
 10
-7.13917
 20
-10.55605
 30
0.0
 10
-7.13917
 20
-10.55605
 30
0.0
 10
-7.13917
 20
-10.43752
 30
0.0
 10
-7.13917
 20
-10.43752
 30
0.0
 10
-7.13917
 20
-10.43752
 30
0.0
 10
-7.14365
 20
-10.44179
 30
0.0
 10
-7.1495
 20
-10.44606
 30
0.0
 10
-7.15677
 20
-10.45033
 30
0.0
 10
-7.15677
 20
-10.45033
 30
0.0
 10
-7.16407
 20
-10.45459
 30
0.0
 10
-7.1706
 20
-10.4578
 30
0.0
 10
-7.17638
 20
-10.45992
 30
0.0
 10
-7.17638
 20
-10.45992
 30
0.0
 10
-7.17638
 20
-10.45992
 30
0.0
 10
-7.17638
 20
-10.44197
 30
0.0
 10
-7.17638
 20
-10.44197
 30
0.0
 10
-7.17638
 20
-10.44197
 30
0.0
 10
-7.16598
 20
-10.43706
 30
0.0
 10
-7.15688
 20
-10.43114
 30
0.0
 10
-7.14908
 20
-10.42419
 30
0.0
 10
-7.14908
 20
-10.42419
 30
0.0
 10
-7.14132
 20
-10.4172
 30
0.0
 10
-7.13578
 20
-10.41046
 30
0.0
 10
-7.13254
 20
-10.4039
 30
0.0
 10
-7.13254
 20
-10.4039
 30
0.0
 10
-7.13254
 20
-10.4039
 30
0.0
 10
-7.12058
 20
-10.4039
 30
0.0
 10
-7.12058
 20
-10.4039
 30
0.0
 10
-7.12058
 20
-10.4039
 30
0.0
 10
-7.12058
 20
-10.4039
 30
0.0
 10
-7.12058
 20
-10.55605
 30
0.0
 10
-7.12058
 20
-10.55605
 30
0.0
  0
SPLINE
  5
73
330
1F
100
AcDbEntity
  8
Layer 1
 62
   230
100
AcDbSpline
210
0.0
220
0.0
230
1.0
 70
    11
 71
     3
 72
    48
 73
    44
 74
     0
 42
0.0000000001
 43
0.0000000001
 40
0.0
 40
0.0
 40
0.0
 40
0.0
 40
0.0833333333333333
 40
0.0833333333333333
 40
0.0833333333333333
 40
0.0833333333333333
 40
0.1666666666666667
 40
0.1666666666666667
 40
0.1666666666666667
 40
0.1666666666666667
 40
0.25
 40
0.25
 40
0.25
 40
0.25
 40
0.3333333333333333
 40
0.3333333333333333
 40
0.3333333333333333
 40
0.3333333333333333
 40
0.4166666666666667
 40
0.4166666666666667
 40
0.4166666666666667
 40
0.4166666666666667
 40
0.5
 40
0.5
 40
0.5
 40
0.5
 40
0.5833333333333334
 40
0.5833333333333334
 40
0.5833333333333334
 40
0.5833333333333334
 40
0.6666666666666666
 40
0.6666666666666666
 40
0.6666666666666666
 40
0.6666666666666666
 40
0.75
 40
0.75
 40
0.75
 40
0.75
 40
0.8333333333333334
 40
0.8333333333333334
 40
0.8333333333333334
 40
0.8333333333333334
 40
1.0
 40
1.0
 40
1.0
 40
1.0
 10
-7.0133
 20
-10.55605
 30
0.0
 10
-7.0133
 20
-10.55605
 30
0.0
 10
-7.0133
 20
-10.51979
 30
0.0
 10
-7.0133
 20
-10.51979
 30
0.0
 10
-7.0133
 20
-10.51979
 30
0.0
 10
-7.0133
 20
-10.51979
 30
0.0
 10
-7.07902
 20
-10.51979
 30
0.0
 10
-7.07902
 20
-10.51979
 30
0.0
 10
-7.07902
 20
-10.51979
 30
0.0
 10
-7.07902
 20
-10.51979
 30
0.0
 10
-7.07902
 20
-10.50271
 30
0.0
 10
-7.07902
 20
-10.50271
 30
0.0
 10
-7.07902
 20
-10.50271
 30
0.0
 10
-7.07902
 20
-10.50271
 30
0.0
 10
-7.00988
 20
-10.40454
 30
0.0
 10
-7.00988
 20
-10.40454
 30
0.0
 10
-7.00988
 20
-10.40454
 30
0.0
 10
-7.00988
 20
-10.40454
 30
0.0
 10
-6.99467
 20
-10.40454
 30
0.0
 10
-6.99467
 20
-10.40454
 30
0.0
 10
-6.99467
 20
-10.40454
 30
0.0
 10
-6.99467
 20
-10.40454
 30
0.0
 10
-6.99467
 20
-10.50271
 30
0.0
 10
-6.99467
 20
-10.50271
 30
0.0
 10
-6.99467
 20
-10.50271
 30
0.0
 10
-6.99467
 20
-10.50271
 30
0.0
 10
-6.97421
 20
-10.50271
 30
0.0
 10
-6.97421
 20
-10.50271
 30
0.0
 10
-6.97421
 20
-10.50271
 30
0.0
 10
-6.97421
 20
-10.50271
 30
0.0
 10
-6.97421
 20
-10.51979
 30
0.0
 10
-6.97421
 20
-10.51979
 30
0.0
 10
-6.97421
 20
-10.51979
 30
0.0
 10
-6.97421
 20
-10.51979
 30
0.0
 10
-6.99467
 20
-10.51979
 30
0.0
 10
-6.99467
 20
-10.51979
 30
0.0
 10
-6.99467
 20
-10.51979
 30
0.0
 10
-6.99467
 20
-10.51979
 30
0.0
 10
-6.99467
 20
-10.55605
 30
0.0
 10
-6.99467
 20
-10.55605
 30
0.0
 10
-6.99467
 20
-10.55605
 30
0.0
 10
-6.99467
 20
-10.55605
 30
0.0
 10
-7.0133
 20
-10.55605
 30
0.0
 10
-7.0133
 20
-10.55605
 30
0.0
  0
SPLINE
  5
74
330
1F
100
AcDbEntity
  8
Layer 1
 62
   230
100
AcDbSpline
210
0.0
220
0.0
230
1.0
 70
    11
 71
     3
 72
    16
 73
    12
 74
     0
 42
0.0000000001
 43
0.0000000001
 40
0.0
 40
0.0
 40
0.0
 40
0.0
 40
0.25
 40
0.25
 40
0.25
 40
0.25
 40
0.5
 40
0.5
 40
0.5
 40
0.5
 40
1.0
 40
1.0
 40
1.0
 40
1.0
 10
-7.0133
 20
-10.50271
 30
0.0
 10
-7.0133
 20
-10.50271
 30
0.0
 10
-7.0133
 20
-10.43442
 30
0.0
 10
-7.0133
 20
-10.43442
 30
0.0
 10
-7.0133
 20
-10.43442
 30
0.0
 10
-7.0133
 20
-10.43442
 30
0.0
 10
-7.06071
 20
-10.50271
 30
0.0
 10
-7.06071
 20
-10.50271
 30
0.0
 10
-7.06071
 20
-10.50271
 30
0.0
 10
-7.06071
 20
-10.50271
 30
0.0
 10
-7.0133
 20
-10.50271
 30
0.0
 10
-7.0133
 20
-10.50271
 30
0.0
  0
SPLINE
  5
75
330
1F
100
AcDbEntity
  8
Layer 1
 62
   230
100
AcDbSpline
210
0.0
220
0.0
230
1.0
 70
    11
 71
     3
 72
    40
 73
    36
 74
     0
 42
0.0000000001
 43
0.0000000001
 40
0.0
 40
0.0
 40
0.0
 40
0.0
 40
0.1
 40
0.1
 40
0.1
 40
0.1
 40
0.2
 40
0.2
 40
0.2
 40
0.2
 40
0.3
 40
0.3
 40
0.3
 40
0.3
 40
0.4
 40
0.4
 40
0.4
 40
0.4
 40
0.5
 40
0.5
 40
0.5
 40
0.5
 40
0.6
 40
0.6
 40
0.6
 40
0.6
 40
0.7
 40
0.7
 40
0.7
 40
0.7
 40
0.8
 40
0.8
 40
0.8
 40
0.8
 40
1.0
 40
1.0
 40
1.0
 40
1.0
 10
-5.69056
 20
-10.55605
 30
0.0
 10
-5.69056
 20
-10.55605
 30
0.0
 10
-5.70915
 20
-10.55605
 30
0.0
 10
-5.70915
 20
-10.55605
 30
0.0
 10
-5.70915
 20
-10.55605
 30
0.0
 10
-5.70915
 20
-10.55605
 30
0.0
 10
-5.70915
 20
-10.43752
 30
0.0
 10
-5.70915
 20
-10.43752
 30
0.0
 10
-5.70915
 20
-10.43752
 30
0.0
 10
-5.71363
 20
-10.44179
 30
0.0
 10
-5.71948
 20
-10.44606
 30
0.0
 10
-5.72675
 20
-10.45033
 30
0.0
 10
-5.72675
 20
-10.45033
 30
0.0
 10
-5.73405
 20
-10.45459
 30
0.0
 10
-5.74058
 20
-10.4578
 30
0.0
 10
-5.74636
 20
-10.45992
 30
0.0
 10
-5.74636
 20
-10.45992
 30
0.0
 10
-5.74636
 20
-10.45992
 30
0.0
 10
-5.74636
 20
-10.44197
 30
0.0
 10
-5.74636
 20
-10.44197
 30
0.0
 10
-5.74636
 20
-10.44197
 30
0.0
 10
-5.73596
 20
-10.43706
 30
0.0
 10
-5.72686
 20
-10.43114
 30
0.0
 10
-5.71906
 20
-10.42419
 30
0.0
 10
-5.71906
 20
-10.42419
 30
0.0
 10
-5.7113
 20
-10.4172
 30
0.0
 10
-5.70576
 20
-10.41046
 30
0.0
 10
-5.70252
 20
-10.4039
 30
0.0
 10
-5.70252
 20
-10.4039
 30
0.0
 10
-5.70252
 20
-10.4039
 30
0.0
 10
-5.69056
 20
-10.4039
 30
0.0
 10
-5.69056
 20
-10.4039
 30
0.0
 10
-5.69056
 20
-10.4039
 30
0.0
 10
-5.69056
 20
-10.4039
 30
0.0
 10
-5.69056
 20
-10.55605
 30
0.0
 10
-5.69056
 20
-10.55605
 30
0.0
  0
SPLINE
  5
76
330
1F
100
AcDbEntity
  8
Layer 1
 62
   230
100
AcDbSpline
210
0.0
220
0.0
230
1.0
 70
    11
 71
     3
 72
    92
 73
    88
 74
     0
 42
0.0000000001
 43
0.0000000001
 40
0.0
 40
0.0
 40
0.0
 40
0.0
 40
0.0434782608695652
 40
0.0434782608695652
 40
0.0434782608695652
 40
0.0434782608695652
 40
0.0869565217391304
 40
0.0869565217391304
 40
0.0869565217391304
 40
0.0869565217391304
 40
0.1304347826086956
 40
0.1304347826086956
 40
0.1304347826086956
 40
0.1304347826086956
 40
0.1739130434782609
 40
0.1739130434782609
 40
0.1739130434782609
 40
0.1739130434782609
 40
0.2173913043478261
 40
0.2173913043478261
 40
0.2173913043478261
 40
0.2173913043478261
 40
0.2608695652173913
 40
0.2608695652173913
 40
0.2608695652173913
 40
0.2608695652173913
 40
0.3043478260869565
 40
0.3043478260869565
 40
0.3043478260869565
 40
0.3043478260869565
 40
0.3478260869565217
 40
0.3478260869565217
 40
0.3478260869565217
 40
0.3478260869565217
 40
0.391304347826087
 40
0.391304347826087
 40
0.391304347826087
 40
0.391304347826087
 40
0.4347826086956522
 40
0.4347826086956522
 40
0.4347826086956522
 40
0.4347826086956522
 40
0.4782608695652174
 40
0.4782608695652174
 40
0.4782608695652174
 40
0.4782608695652174
 40
0.5217391304347826
 40
0.5217391304347826
 40
0.5217391304347826
 40
0.5217391304347826
 40
0.5652173913043478
 40
0.5652173913043478
 40
0.5652173913043478
 40
0.5652173913043478
 40
0.6086956521739131
 40
0.6086956521739131
 40
0.6086956521739131
 40
0.6086956521739131
 40
0.6521739130434783
 40
0.6521739130434783
 40
0.6521739130434783
 40
0.6521739130434783
 40
0.6956521739130435
 40
0.6956521739130435
 40
0.6956521739130435
 40
0.6956521739130435
 40
0.7391304347826086
 40
0.7391304347826086
 40
0.7391304347826086
 40
0.7391304347826086
 40
0.782608695652174
 40
0.782608695652174
 40
0.782608695652174
 40
0.782608695652174
 40
0.8260869565217391
 40
0.8260869565217391
 40
0.8260869565217391
 40
0.8260869565217391
 40
0.8695652173913043
 40
0.8695652173913043
 40
0.8695652173913043
 40
0.8695652173913043
 40
0.9130434782608695
 40
0.9130434782608695
 40
0.9130434782608695
 40
0.9130434782608695
 40
1.0
 40
1.0
 40
1.0
 40
1.0
 10
-5.6429
 20
-10.51636
 30
0.0
 10
-5.6429
 20
-10.51636
 30
0.0
 10
-5.62335
 20
-10.51471
 30
0.0
 10
-5.62335
 20
-10.51471
 30
0.0
 10
-5.62335
 20
-10.51471
 30
0.0
 10
-5.62191
 20
-10.52423
 30
0.0
 10
-5.61856
 20
-10.53136
 30
0.0
 10
-5.6133
 20
-10.53615
 30
0.0
 10
-5.6133
 20
-10.53615
 30
0.0
 10
-5.60801
 20
-10.54095
 30
0.0
 10
-5.60166
 20
-10.54335
 30
0.0
 10
-5.59421
 20
-10.54335
 30
0.0
 10
-5.59421
 20
-10.54335
 30
0.0
 10
-5.58525
 20
-10.54335
 30
0.0
 10
-5.57767
 20
-10.53996
 30
0.0
 10
-5.5715
 20
-10.53323
 30
0.0
 10
-5.5715
 20
-10.53323
 30
0.0
 10
-5.56529
 20
-10.52645
 30
0.0
 10
-5.56218
 20
-10.51749
 30
0.0
 10
-5.56218
 20
-10.50635
 30
0.0
 10
-5.56218
 20
-10.50635
 30
0.0
 10
-5.56218
 20
-10.49573
 30
0.0
 10
-5.56515
 20
-10.48737
 30
0.0
 10
-5.57111
 20
-10.48123
 30
0.0
 10
-5.57111
 20
-10.48123
 30
0.0
 10
-5.57707
 20
-10.47509
 30
0.0
 10
-5.58487
 20
-10.47202
 30
0.0
 10
-5.59453
 20
-10.47202
 30
0.0
 10
-5.59453
 20
-10.47202
 30
0.0
 10
-5.60053
 20
-10.47202
 30
0.0
 10
-5.60593
 20
-10.4734
 30
0.0
 10
-5.61076
 20
-10.47611
 30
0.0
 10
-5.61076
 20
-10.47611
 30
0.0
 10
-5.61559
 20
-10.47883
 30
0.0
 10
-5.61937
 20
-10.48236
 30
0.0
 10
-5.62212
 20
-10.4867
 30
0.0
 10
-5.62212
 20
-10.4867
 30
0.0
 10
-5.62212
 20
-10.4867
 30
0.0
 10
-5.63958
 20
-10.48444
 30
0.0
 10
-5.63958
 20
-10.48444
 30
0.0
 10
-5.63958
 20
-10.48444
 30
0.0
 10
-5.63958
 20
-10.48444
 30
0.0
 10
-5.62491
 20
-10.40662
 30
0.0
 10
-5.62491
 20
-10.40662
 30
0.0
 10
-5.62491
 20
-10.40662
 30
0.0
 10
-5.62491
 20
-10.40662
 30
0.0
 10
-5.54955
 20
-10.40662
 30
0.0
 10
-5.54955
 20
-10.40662
 30
0.0
 10
-5.54955
 20
-10.40662
 30
0.0
 10
-5.54955
 20
-10.40662
 30
0.0
 10
-5.54955
 20
-10.4244
 30
0.0
 10
-5.54955
 20
-10.4244
 30
0.0
 10
-5.54955
 20
-10.4244
 30
0.0
 10
-5.54955
 20
-10.4244
 30
0.0
 10
-5.61002
 20
-10.4244
 30
0.0
 10
-5.61002
 20
-10.4244
 30
0.0
 10
-5.61002
 20
-10.4244
 30
0.0
 10
-5.61002
 20
-10.4244
 30
0.0
 10
-5.6182
 20
-10.46511
 30
0.0
 10
-5.6182
 20
-10.46511
 30
0.0
 10
-5.6182
 20
-10.46511
 30
0.0
 10
-5.6091
 20
-10.45876
 30
0.0
 10
-5.59954
 20
-10.45558
 30
0.0
 10
-5.58956
 20
-10.45558
 30
0.0
 10
-5.58956
 20
-10.45558
 30
0.0
 10
-5.57633
 20
-10.45558
 30
0.0
 10
-5.56518
 20
-10.46017
 30
0.0
 10
-5.55608
 20
-10.46934
 30
0.0
 10
-5.55608
 20
-10.46934
 30
0.0
 10
-5.54698
 20
-10.47851
 30
0.0
 10
-5.54243
 20
-10.49029
 30
0.0
 10
-5.54243
 20
-10.50469
 30
0.0
 10
-5.54243
 20
-10.50469
 30
0.0
 10
-5.54243
 20
-10.51841
 30
0.0
 10
-5.54645
 20
-10.53026
 30
0.0
 10
-5.55442
 20
-10.54025
 30
0.0
 10
-5.55442
 20
-10.54025
 30
0.0
 10
-5.56416
 20
-10.55249
 30
0.0
 10
-5.57742
 20
-10.55863
 30
0.0
 10
-5.59421
 20
-10.55863
 30
0.0
 10
-5.59421
 20
-10.55863
 30
0.0
 10
-5.60801
 20
-10.55863
 30
0.0
 10
-5.61926
 20
-10.55478
 30
0.0
 10
-5.62797
 20
-10.54705
 30
0.0
 10
-5.62797
 20
-10.54705
 30
0.0
 10
-5.63669
 20
-10.53933
 30
0.0
 10
-5.64166
 20
-10.5291
 30
0.0
 10
-5.6429
 20
-10.51636
 30
0.0
  0
SPLINE
  5
77
330
1F
100
AcDbEntity
  8
Layer 1
 62
   230
100
AcDbSpline
210
0.0
220
0.0
230
1.0
 70
    11
 71
     3
 72
    40
 73
    36
 74
     0
 42
0.0000000001
 43
0.0000000001
 40
0.0
 40
0.0
 40
0.0
 40
0.0
 40
0.1
 40
0.1
 40
0.1
 40
0.1
 40
0.2
 40
0.2
 40
0.2
 40
0.2
 40
0.3
 40
0.3
 40
0.3
 40
0.3
 40
0.4
 40
0.4
 40
0.4
 40
0.4
 40
0.5
 40
0.5
 40
0.5
 40
0.5
 40
0.6
 40
0.6
 40
0.6
 40
0.6
 40
0.7
 40
0.7
 40
0.7
 40
0.7
 40
0.8
 40
0.8
 40
0.8
 40
0.8
 40
1.0
 40
1.0
 40
1.0
 40
1.0
 10
-4.26058
 20
-10.55605
 30
0.0
 10
-4.26058
 20
-10.55605
 30
0.0
 10
-4.27917
 20
-10.55605
 30
0.0
 10
-4.27917
 20
-10.55605
 30
0.0
 10
-4.27917
 20
-10.55605
 30
0.0
 10
-4.27917
 20
-10.55605
 30
0.0
 10
-4.27917
 20
-10.43752
 30
0.0
 10
-4.27917
 20
-10.43752
 30
0.0
 10
-4.27917
 20
-10.43752
 30
0.0
 10
-4.28365
 20
-10.44179
 30
0.0
 10
-4.2895
 20
-10.44606
 30
0.0
 10
-4.29677
 20
-10.45033
 30
0.0
 10
-4.29677
 20
-10.45033
 30
0.0
 10
-4.30407
 20
-10.45459
 30
0.0
 10
-4.3106
 20
-10.4578
 30
0.0
 10
-4.31638
 20
-10.45992
 30
0.0
 10
-4.31638
 20
-10.45992
 30
0.0
 10
-4.31638
 20
-10.45992
 30
0.0
 10
-4.31638
 20
-10.44197
 30
0.0
 10
-4.31638
 20
-10.44197
 30
0.0
 10
-4.31638
 20
-10.44197
 30
0.0
 10
-4.30598
 20
-10.43706
 30
0.0
 10
-4.29688
 20
-10.43114
 30
0.0
 10
-4.28908
 20
-10.42419
 30
0.0
 10
-4.28908
 20
-10.42419
 30
0.0
 10
-4.28132
 20
-10.4172
 30
0.0
 10
-4.27578
 20
-10.41046
 30
0.0
 10
-4.27254
 20
-10.4039
 30
0.0
 10
-4.27254
 20
-10.4039
 30
0.0
 10
-4.27254
 20
-10.4039
 30
0.0
 10
-4.26058
 20
-10.4039
 30
0.0
 10
-4.26058
 20
-10.4039
 30
0.0
 10
-4.26058
 20
-10.4039
 30
0.0
 10
-4.26058
 20
-10.4039
 30
0.0
 10
-4.26058
 20
-10.55605
 30
0.0
 10
-4.26058
 20
-10.55605
 30
0.0
  0
SPLINE
  5
78
330
1F
100
AcDbEntity
  8
Layer 1
 62
   230
100
AcDbSpline
210
0.0
220
0.0
230
1.0
 70
    11
 71
     3
 72
    80
 73
    76
 74
     0
 42
0.0000000001
 43
0.0000000001
 40
0.0
 40
0.0
 40
0.0
 40
0.0
 40
0.05
 40
0.05
 40
0.05
 40
0.05
 40
0.1
 40
0.1
 40
0.1
 40
0.1
 40
0.15
 40
0.15
 40
0.15
 40
0.15
 40
0.2
 40
0.2
 40
0.2
 40
0.2
 40
0.25
 40
0.25
 40
0.25
 40
0.25
 40
0.3
 40
0.3
 40
0.3
 40
0.3
 40
0.35
 40
0.35
 40
0.35
 40
0.35
 40
0.4
 40
0.4
 40
0.4
 40
0.4
 40
0.45
 40
0.45
 40
0.45
 40
0.45
 40
0.5
 40
0.5
 40
0.5
 40
0.5
 40
0.55
 40
0.55
 40
0.55
 40
0.55
 40
0.6
 40
0.6
 40
0.6
 40
0.6
 40
0.65
 40
0.65
 40
0.65
 40
0.65
 40
0.7
 40
0.7
 40
0.7
 40
0.7
 40
0.75
 40
0.75
 40
0.75
 40
0.75
 40
0.8
 40
0.8
 40
0.8
 40
0.8
 40
0.85
 40
0.85
 40
0.85
 40
0.85
 40
0.9
 40
0.9
 40
0.9
 40
0.9
 40
1.0
 40
1.0
 40
1.0
 40
1.0
 10
-4.1164
 20
-10.44165
 30
0.0
 10
-4.1164
 20
-10.44165
 30
0.0
 10
-4.13488
 20
-10.44309
 30
0.0
 10
-4.13488
 20
-10.44309
 30
0.0
 10
-4.13488
 20
-10.44309
 30
0.0
 10
-4.13654
 20
-10.43579
 30
0.0
 10
-4.13887
 20
-10.43047
 30
0.0
 10
-4.1419
 20
-10.42718
 30
0.0
 10
-4.1419
 20
-10.42718
 30
0.0
 10
-4.14695
 20
-10.42186
 30
0.0
 10
-4.15316
 20
-10.41921
 30
0.0
 10
-4.16053
 20
-10.41921
 30
0.0
 10
-4.16053
 20
-10.41921
 30
0.0
 10
-4.16646
 20
-10.41921
 30
0.0
 10
-4.17164
 20
-10.42087
 30
0.0
 10
-4.17612
 20
-10.42419
 30
0.0
 10
-4.17612
 20
-10.42419
 30
0.0
 10
-4.18198
 20
-10.42845
 30
0.0
 10
-4.1866
 20
-10.4347
 30
0.0
 10
-4.18999
 20
-10.44288
 30
0.0
 10
-4.18999
 20
-10.44288
 30
0.0
 10
-4.19334
 20
-10.45107
 30
0.0
 10
-4.1951
 20
-10.46274
 30
0.0
 10
-4.19524
 20
-10.47791
 30
0.0
 10
-4.19524
 20
-10.47791
 30
0.0
 10
-4.19076
 20
-10.4711
 30
0.0
 10
-4.18529
 20
-10.46602
 30
0.0
 10
-4.1788
 20
-10.46271
 30
0.0
 10
-4.1788
 20
-10.46271
 30
0.0
 10
-4.17235
 20
-10.45943
 30
0.0
 10
-4.16554
 20
-10.45777
 30
0.0
 10
-4.15845
 20
-10.45777
 30
0.0
 10
-4.15845
 20
-10.45777
 30
0.0
 10
-4.14603
 20
-10.45777
 30
0.0
 10
-4.13548
 20
-10.46232
 30
0.0
 10
-4.12677
 20
-10.47146
 30
0.0
 10
-4.12677
 20
-10.47146
 30
0.0
 10
-4.11806
 20
-10.48059
 30
0.0
 10
-4.11368
 20
-10.49238
 30
0.0
 10
-4.11368
 20
-10.50684
 30
0.0
 10
-4.11368
 20
-10.50684
 30
0.0
 10
-4.11368
 20
-10.51636
 30
0.0
 10
-4.11576
 20
-10.52518
 30
0.0
 10
-4.11986
 20
-10.53337
 30
0.0
 10
-4.11986
 20
-10.53337
 30
0.0
 10
-4.12395
 20
-10.54152
 30
0.0
 10
-4.12959
 20
-10.5478
 30
0.0
 10
-4.13675
 20
-10.55213
 30
0.0
 10
-4.13675
 20
-10.55213
 30
0.0
 10
-4.14391
 20
-10.55647
 30
0.0
 10
-4.15203
 20
-10.55863
 30
0.0
 10
-4.16113
 20
-10.55863
 30
0.0
 10
-4.16113
 20
-10.55863
 30
0.0
 10
-4.17665
 20
-10.55863
 30
0.0
 10
-4.18928
 20
-10.55295
 30
0.0
 10
-4.19905
 20
-10.54152
 30
0.0
 10
-4.19905
 20
-10.54152
 30
0.0
 10
-4.20886
 20
-10.53012
 30
0.0
 10
-4.21373
 20
-10.51132
 30
0.0
 10
-4.21373
 20
-10.48514
 30
0.0
 10
-4.21373
 20
-10.48514
 30
0.0
 10
-4.21373
 20
-10.45586
 30
0.0
 10
-4.20833
 20
-10.43459
 30
0.0
 10
-4.1975
 20
-10.42129
 30
0.0
 10
-4.1975
 20
-10.42129
 30
0.0
 10
-4.18808
 20
-10.40972
 30
0.0
 10
-4.17538
 20
-10.4039
 30
0.0
 10
-4.15937
 20
-10.4039
 30
0.0
 10
-4.15937
 20
-10.4039
 30
0.0
 10
-4.14748
 20
-10.4039
 30
0.0
 10
-4.13771
 20
-10.40725
 30
0.0
 10
-4.13009
 20
-10.41396
 30
0.0
 10
-4.13009
 20
-10.41396
 30
0.0
 10
-4.12247
 20
-10.42062
 30
0.0
 10
-4.11792
 20
-10.42987
 30
0.0
 10
-4.1164
 20
-10.44165
 30
0.0
  0
SPLINE
  5
79
330
1F
100
AcDbEntity
  8
Layer 1
 62
   230
100
AcDbSpline
210
0.0
220
0.0
230
1.0
 70
    11
 71
     3
 72
    40
 73
    36
 74
     0
 42
0.0000000001
 43
0.0000000001
 40
0.0
 40
0.0
 40
0.0
 40
0.0
 40
0.1
 40
0.1
 40
0.1
 40
0.1
 40
0.2
 40
0.2
 40
0.2
 40
0.2
 40
0.3
 40
0.3
 40
0.3
 40
0.3
 40
0.4
 40
0.4
 40
0.4
 40
0.4
 40
0.5
 40
0.5
 40
0.5
 40
0.5
 40
0.6
 40
0.6
 40
0.6
 40
0.6
 40
0.7
 40
0.7
 40
0.7
 40
0.7
 40
0.8
 40
0.8
 40
0.8
 40
0.8
 40
1.0
 40
1.0
 40
1.0
 40
1.0
 10
-4.19235
 20
-10.50694
 30
0.0
 10
-4.19235
 20
-10.51337
 30
0.0
 10
-4.19097
 20
-10.5195
 30
0.0
 10
-4.18826
 20
-10.52536
 30
0.0
 10
-4.18826
 20
-10.52536
 30
0.0
 10
-4.18554
 20
-10.53122
 30
0.0
 10
-4.18173
 20
-10.53566
 30
0.0
 10
-4.17686
 20
-10.53873
 30
0.0
 10
-4.17686
 20
-10.53873
 30
0.0
 10
-4.17196
 20
-10.5418
 30
0.0
 10
-4.16681
 20
-10.54335
 30
0.0
 10
-4.16145
 20
-10.54335
 30
0.0
 10
-4.16145
 20
-10.54335
 30
0.0
 10
-4.15358
 20
-10.54335
 30
0.0
 10
-4.14684
 20
-10.54018
 30
0.0
 10
-4.1412
 20
-10.53383
 30
0.0
 10
-4.1412
 20
-10.53383
 30
0.0
 10
-4.13555
 20
-10.52748
 30
0.0
 10
-4.13273
 20
-10.51887
 30
0.0
 10
-4.13273
 20
-10.508
 30
0.0
 10
-4.13273
 20
-10.508
 30
0.0
 10
-4.13273
 20
-10.49753
 30
0.0
 10
-4.13552
 20
-10.48927
 30
0.0
 10
-4.14109
 20
-10.48324
 30
0.0
 10
-4.14109
 20
-10.48324
 30
0.0
 10
-4.14667
 20
-10.47721
 30
0.0
 10
-4.15369
 20
-10.47421
 30
0.0
 10
-4.16215
 20
-10.47421
 30
0.0
 10
-4.16215
 20
-10.47421
 30
0.0
 10
-4.17058
 20
-10.47421
 30
0.0
 10
-4.17771
 20
-10.47721
 30
0.0
 10
-4.18357
 20
-10.48324
 30
0.0
 10
-4.18357
 20
-10.48324
 30
0.0
 10
-4.18942
 20
-10.48927
 30
0.0
 10
-4.19235
 20
-10.49717
 30
0.0
 10
-4.19235
 20
-10.50694
 30
0.0
  0
SPLINE
  5
7A
330
1F
100
AcDbEntity
  8
Layer 1
 62
   230
100
AcDbSpline
210
0.0
220
0.0
230
1.0
 70
    11
 71
     3
 72
    40
 73
    36
 74
     0
 42
0.0000000001
 43
0.0000000001
 40
0.0
 40
0.0
 40
0.0
 40
0.0
 40
0.1
 40
0.1
 40
0.1
 40
0.1
 40
0.2
 40
0.2
 40
0.2
 40
0.2
 40
0.3
 40
0.3
 40
0.3
 40
0.3
 40
0.4
 40
0.4
 40
0.4
 40
0.4
 40
0.5
 40
0.5
 40
0.5
 40
0.5
 40
0.6
 40
0.6
 40
0.6
 40
0.6
 40
0.7
 40
0.7
 40
0.7
 40
0.7
 40
0.8
 40
0.8
 40
0.8
 40
0.8
 40
1.0
 40
1.0
 40
1.0
 40
1.0
 10
-2.83058
 20
-10.55605
 30
0.0
 10
-2.83058
 20
-10.55605
 30
0.0
 10
-2.84917
 20
-10.55605
 30
0.0
 10
-2.84917
 20
-10.55605
 30
0.0
 10
-2.84917
 20
-10.55605
 30
0.0
 10
-2.84917
 20
-10.55605
 30
0.0
 10
-2.84917
 20
-10.43752
 30
0.0
 10
-2.84917
 20
-10.43752
 30
0.0
 10
-2.84917
 20
-10.43752
 30
0.0
 10
-2.85365
 20
-10.44179
 30
0.0
 10
-2.8595
 20
-10.44606
 30
0.0
 10
-2.86677
 20
-10.45033
 30
0.0
 10
-2.86677
 20
-10.45033
 30
0.0
 10
-2.87407
 20
-10.45459
 30
0.0
 10
-2.8806
 20
-10.4578
 30
0.0
 10
-2.88638
 20
-10.45992
 30
0.0
 10
-2.88638
 20
-10.45992
 30
0.0
 10
-2.88638
 20
-10.45992
 30
0.0
 10
-2.88638
 20
-10.44197
 30
0.0
 10
-2.88638
 20
-10.44197
 30
0.0
 10
-2.88638
 20
-10.44197
 30
0.0
 10
-2.87598
 20
-10.43706
 30
0.0
 10
-2.86688
 20
-10.43114
 30
0.0
 10
-2.85908
 20
-10.42419
 30
0.0
 10
-2.85908
 20
-10.42419
 30
0.0
 10
-2.85132
 20
-10.4172
 30
0.0
 10
-2.84578
 20
-10.41046
 30
0.0
 10
-2.84254
 20
-10.4039
 30
0.0
 10
-2.84254
 20
-10.4039
 30
0.0
 10
-2.84254
 20
-10.4039
 30
0.0
 10
-2.83058
 20
-10.4039
 30
0.0
 10
-2.83058
 20
-10.4039
 30
0.0
 10
-2.83058
 20
-10.4039
 30
0.0
 10
-2.83058
 20
-10.4039
 30
0.0
 10
-2.83058
 20
-10.55605
 30
0.0
 10
-2.83058
 20
-10.55605
 30
0.0
  0
SPLINE
  5
7B
330
1F
100
AcDbEntity
  8
Layer 1
 62
   230
100
AcDbSpline
210
0.0
220
0.0
230
1.0
 70
    11
 71
     3
 72
    48
 73
    44
 74
     0
 42
0.0000000001
 43
0.0000000001
 40
0.0
 40
0.0
 40
0.0
 40
0.0
 40
0.0833333333333333
 40
0.0833333333333333
 40
0.0833333333333333
 40
0.0833333333333333
 40
0.1666666666666667
 40
0.1666666666666667
 40
0.1666666666666667
 40
0.1666666666666667
 40
0.25
 40
0.25
 40
0.25
 40
0.25
 40
0.3333333333333333
 40
0.3333333333333333
 40
0.3333333333333333
 40
0.3333333333333333
 40
0.4166666666666667
 40
0.4166666666666667
 40
0.4166666666666667
 40
0.4166666666666667
 40
0.5
 40
0.5
 40
0.5
 40
0.5
 40
0.5833333333333334
 40
0.5833333333333334
 40
0.5833333333333334
 40
0.5833333333333334
 40
0.6666666666666666
 40
0.6666666666666666
 40
0.6666666666666666
 40
0.6666666666666666
 40
0.75
 40
0.75
 40
0.75
 40
0.75
 40
0.8333333333333334
 40
0.8333333333333334
 40
0.8333333333333334
 40
0.8333333333333334
 40
1.0
 40
1.0
 40
1.0
 40
1.0
 10
-2.78168
 20
-10.4244
 30
0.0
 10
-2.78168
 20
-10.4244
 30
0.0
 10
-2.78168
 20
-10.40651
 30
0.0
 10
-2.78168
 20
-10.40651
 30
0.0
 10
-2.78168
 20
-10.40651
 30
0.0
 10
-2.78168
 20
-10.40651
 30
0.0
 10
-2.68361
 20
-10.40651
 30
0.0
 10
-2.68361
 20
-10.40651
 30
0.0
 10
-2.68361
 20
-10.40651
 30
0.0
 10
-2.68361
 20
-10.40651
 30
0.0
 10
-2.68361
 20
-10.42098
 30
0.0
 10
-2.68361
 20
-10.42098
 30
0.0
 10
-2.68361
 20
-10.42098
 30
0.0
 10
-2.69324
 20
-10.43124
 30
0.0
 10
-2.7028
 20
-10.44489
 30
0.0
 10
-2.71229
 20
-10.4619
 30
0.0
 10
-2.71229
 20
-10.4619
 30
0.0
 10
-2.72175
 20
-10.4789
 30
0.0
 10
-2.72908
 20
-10.49643
 30
0.0
 10
-2.73423
 20
-10.51439
 30
0.0
 10
-2.73423
 20
-10.51439
 30
0.0
 10
-2.73797
 20
-10.52709
 30
0.0
 10
-2.74034
 20
-10.54095
 30
0.0
 10
-2.74136
 20
-10.55605
 30
0.0
 10
-2.74136
 20
-10.55605
 30
0.0
 10
-2.74136
 20
-10.55605
 30
0.0
 10
-2.76048
 20
-10.55605
 30
0.0
 10
-2.76048
 20
-10.55605
 30
0.0
 10
-2.76048
 20
-10.55605
 30
0.0
 10
-2.76027
 20
-10.54413
 30
0.0
 10
-2.75794
 20
-10.52973
 30
0.0
 10
-2.75346
 20
-10.51284
 30
0.0
 10
-2.75346
 20
-10.51284
 30
0.0
 10
-2.74898
 20
-10.49597
 30
0.0
 10
-2.74256
 20
-10.47968
 30
0.0
 10
-2.7342
 20
-10.46401
 30
0.0
 10
-2.7342
 20
-10.46401
 30
0.0
 10
-2.7258
 20
-10.44835
 30
0.0
 10
-2.71691
 20
-10.43512
 30
0.0
 10
-2.70746
 20
-10.4244
 30
0.0
 10
-2.70746
 20
-10.4244
 30
0.0
 10
-2.70746
 20
-10.4244
 30
0.0
 10
-2.78168
 20
-10.4244
 30
0.0
 10
-2.78168
 20
-10.4244
 30
0.0
  0
SPLINE
  5
7C
330
1F
100
AcDbEntity
  8
Layer 1
 62
   230
100
AcDbSpline
210
0.0
220
0.0
230
1.0
 70
    11
 71
     3
 72
    40
 73
    36
 74
     0
 42
0.0000000001
 43
0.0000000001
 40
0.0
 40
0.0
 40
0.0
 40
0.0
 40
0.1
 40
0.1
 40
0.1
 40
0.1
 40
0.2
 40
0.2
 40
0.2
 40
0.2
 40
0.3
 40
0.3
 40
0.3
 40
0.3
 40
0.4
 40
0.4
 40
0.4
 40
0.4
 40
0.5
 40
0.5
 40
0.5
 40
0.5
 40
0.6
 40
0.6
 40
0.6
 40
0.6
 40
0.7
 40
0.7
 40
0.7
 40
0.7
 40
0.8
 40
0.8
 40
0.8
 40
0.8
 40
1.0
 40
1.0
 40
1.0
 40
1.0
 10
-1.40054
 20
-10.55605
 30
0.0
 10
-1.40054
 20
-10.55605
 30
0.0
 10
-1.41913
 20
-10.55605
 30
0.0
 10
-1.41913
 20
-10.55605
 30
0.0
 10
-1.41913
 20
-10.55605
 30
0.0
 10
-1.41913
 20
-10.55605
 30
0.0
 10
-1.41913
 20
-10.43752
 30
0.0
 10
-1.41913
 20
-10.43752
 30
0.0
 10
-1.41913
 20
-10.43752
 30
0.0
 10
-1.42361
 20
-10.44179
 30
0.0
 10
-1.42946
 20
-10.44606
 30
0.0
 10
-1.43673
 20
-10.45033
 30
0.0
 10
-1.43673
 20
-10.45033
 30
0.0
 10
-1.44403
 20
-10.45459
 30
0.0
 10
-1.45056
 20
-10.4578
 30
0.0
 10
-1.45634
 20
-10.45992
 30
0.0
 10
-1.45634
 20
-10.45992
 30
0.0
 10
-1.45634
 20
-10.45992
 30
0.0
 10
-1.45634
 20
-10.44197
 30
0.0
 10
-1.45634
 20
-10.44197
 30
0.0
 10
-1.45634
 20
-10.44197
 30
0.0
 10
-1.44594
 20
-10.43706
 30
0.0
 10
-1.43684
 20
-10.43114
 30
0.0
 10
-1.42904
 20
-10.42419
 30
0.0
 10
-1.42904
 20
-10.42419
 30
0.0
 10
-1.42128
 20
-10.4172
 30
0.0
 10
-1.41574
 20
-10.41046
 30
0.0
 10
-1.4125
 20
-10.4039
 30
0.0
 10
-1.4125
 20
-10.4039
 30
0.0
 10
-1.4125
 20
-10.4039
 30
0.0
 10
-1.40054
 20
-10.4039
 30
0.0
 10
-1.40054
 20
-10.4039
 30
0.0
 10
-1.40054
 20
-10.4039
 30
0.0
 10
-1.40054
 20
-10.4039
 30
0.0
 10
-1.40054
 20
-10.55605
 30
0.0
 10
-1.40054
 20
-10.55605
 30
0.0
  0
SPLINE
  5
7D
330
1F
100
AcDbEntity
  8
Layer 1
 62
   230
100
AcDbSpline
210
0.0
220
0.0
230
1.0
 70
    11
 71
     3
 72
    68
 73
    64
 74
     0
 42
0.0000000001
 43
0.0000000001
 40
0.0
 40
0.0
 40
0.0
 40
0.0
 40
0.0588235294117647
 40
0.0588235294117647
 40
0.0588235294117647
 40
0.0588235294117647
 40
0.1176470588235294
 40
0.1176470588235294
 40
0.1176470588235294
 40
0.1176470588235294
 40
0.1764705882352941
 40
0.1764705882352941
 40
0.1764705882352941
 40
0.1764705882352941
 40
0.2352941176470588
 40
0.2352941176470588
 40
0.2352941176470588
 40
0.2352941176470588
 40
0.2941176470588235
 40
0.2941176470588235
 40
0.2941176470588235
 40
0.2941176470588235
 40
0.3529411764705883
 40
0.3529411764705883
 40
0.3529411764705883
 40
0.3529411764705883
 40
0.4117647058823529
 40
0.4117647058823529
 40
0.4117647058823529
 40
0.4117647058823529
 40
0.4705882352941176
 40
0.4705882352941176
 40
0.4705882352941176
 40
0.4705882352941176
 40
0.5294117647058824
 40
0.5294117647058824
 40
0.5294117647058824
 40
0.5294117647058824
 40
0.5882352941176471
 40
0.5882352941176471
 40
0.5882352941176471
 40
0.5882352941176471
 40
0.6470588235294118
 40
0.6470588235294118
 40
0.6470588235294118
 40
0.6470588235294118
 40
0.7058823529411765
 40
0.7058823529411765
 40
0.7058823529411765
 40
0.7058823529411765
 40
0.7647058823529411
 40
0.7647058823529411
 40
0.7647058823529411
 40
0.7647058823529411
 40
0.8235294117647058
 40
0.8235294117647058
 40
0.8235294117647058
 40
0.8235294117647058
 40
0.8823529411764706
 40
0.8823529411764706
 40
0.8823529411764706
 40
0.8823529411764706
 40
1.0
 40
1.0
 40
1.0
 40
1.0
 10
-1.32423
 20
-10.47389
 30
0.0
 10
-1.33196
 20
-10.47107
 30
0.0
 10
-1.33767
 20
-10.46705
 30
0.0
 10
-1.34141
 20
-10.46179
 30
0.0
 10
-1.34141
 20
-10.46179
 30
0.0
 10
-1.34512
 20
-10.45657
 30
0.0
 10
-1.34698
 20
-10.45029
 30
0.0
 10
-1.34698
 20
-10.44299
 30
0.0
 10
-1.34698
 20
-10.44299
 30
0.0
 10
-1.34698
 20
-10.43195
 30
0.0
 10
-1.34303
 20
-10.4227
 30
0.0
 10
-1.3351
 20
-10.41519
 30
0.0
 10
-1.3351
 20
-10.41519
 30
0.0
 10
-1.32716
 20
-10.40768
 30
0.0
 10
-1.31665
 20
-10.4039
 30
0.0
 10
-1.30349
 20
-10.4039
 30
0.0
 10
-1.30349
 20
-10.4039
 30
0.0
 10
-1.29026
 20
-10.4039
 30
0.0
 10
-1.27961
 20
-10.40775
 30
0.0
 10
-1.27153
 20
-10.41544
 30
0.0
 10
-1.27153
 20
-10.41544
 30
0.0
 10
-1.26349
 20
-10.42313
 30
0.0
 10
-1.25946
 20
-10.43248
 30
0.0
 10
-1.25946
 20
-10.44352
 30
0.0
 10
-1.25946
 20
-10.44352
 30
0.0
 10
-1.25946
 20
-10.45054
 30
0.0
 10
-1.2613
 20
-10.45664
 30
0.0
 10
-1.26497
 20
-10.46186
 30
0.0
 10
-1.26497
 20
-10.46186
 30
0.0
 10
-1.26867
 20
-10.46705
 30
0.0
 10
-1.27424
 20
-10.47107
 30
0.0
 10
-1.28176
 20
-10.47389
 30
0.0
 10
-1.28176
 20
-10.47389
 30
0.0
 10
-1.27248
 20
-10.47692
 30
0.0
 10
-1.26539
 20
-10.48179
 30
0.0
 10
-1.26052
 20
-10.48857
 30
0.0
 10
-1.26052
 20
-10.48857
 30
0.0
 10
-1.25569
 20
-10.4953
 30
0.0
 10
-1.25325
 20
-10.50338
 30
0.0
 10
-1.25325
 20
-10.51273
 30
0.0
 10
-1.25325
 20
-10.51273
 30
0.0
 10
-1.25325
 20
-10.52571
 30
0.0
 10
-1.25784
 20
-10.53658
 30
0.0
 10
-1.26698
 20
-10.5454
 30
0.0
 10
-1.26698
 20
-10.5454
 30
0.0
 10
-1.27615
 20
-10.55422
 30
0.0
 10
-1.28821
 20
-10.55863
 30
0.0
 10
-1.30317
 20
-10.55863
 30
0.0
 10
-1.30317
 20
-10.55863
 30
0.0
 10
-1.31813
 20
-10.55863
 30
0.0
 10
-1.33016
 20
-10.55422
 30
0.0
 10
-1.33933
 20
-10.54536
 30
0.0
 10
-1.33933
 20
-10.54536
 30
0.0
 10
-1.3485
 20
-10.53651
 30
0.0
 10
-1.35309
 20
-10.52547
 30
0.0
 10
-1.35309
 20
-10.51224
 30
0.0
 10
-1.35309
 20
-10.51224
 30
0.0
 10
-1.35309
 20
-10.50239
 30
0.0
 10
-1.35058
 20
-10.49414
 30
0.0
 10
-1.34557
 20
-10.48747
 30
0.0
 10
-1.34557
 20
-10.48747
 30
0.0
 10
-1.3406
 20
-10.48084
 30
0.0
 10
-1.33347
 20
-10.47629
 30
0.0
 10
-1.32423
 20
-10.47389
 30
0.0
  0
SPLINE
  5
7E
330
1F
100
AcDbEntity
  8
Layer 1
 62
   230
100
AcDbSpline
210
0.0
220
0.0
230
1.0
 70
    11
 71
     3
 72
    36
 73
    32
 74
     0
 42
0.0000000001
 43
0.0000000001
 40
0.0
 40
0.0
 40
0.0
 40
0.0
 40
0.1111111111111111
 40
0.1111111111111111
 40
0.1111111111111111
 40
0.1111111111111111
 40
0.2222222222222222
 40
0.2222222222222222
 40
0.2222222222222222
 40
0.2222222222222222
 40
0.3333333333333333
 40
0.3333333333333333
 40
0.3333333333333333
 40
0.3333333333333333
 40
0.4444444444444444
 40
0.4444444444444444
 40
0.4444444444444444
 40
0.4444444444444444
 40
0.5555555555555556
 40
0.5555555555555556
 40
0.5555555555555556
 40
0.5555555555555556
 40
0.6666666666666666
 40
0.6666666666666666
 40
0.6666666666666666
 40
0.6666666666666666
 40
0.7777777777777778
 40
0.7777777777777778
 40
0.7777777777777778
 40
0.7777777777777778
 40
1.0
 40
1.0
 40
1.0
 40
1.0
 10
-1.32797
 20
-10.44235
 30
0.0
 10
-1.32797
 20
-10.44951
 30
0.0
 10
-1.32564
 20
-10.45537
 30
0.0
 10
-1.32106
 20
-10.45992
 30
0.0
 10
-1.32106
 20
-10.45992
 30
0.0
 10
-1.31644
 20
-10.46447
 30
0.0
 10
-1.31044
 20
-10.46676
 30
0.0
 10
-1.30307
 20
-10.46676
 30
0.0
 10
-1.30307
 20
-10.46676
 30
0.0
 10
-1.2959
 20
-10.46676
 30
0.0
 10
-1.29001
 20
-10.46451
 30
0.0
 10
-1.28543
 20
-10.45999
 30
0.0
 10
-1.28543
 20
-10.45999
 30
0.0
 10
-1.28084
 20
-10.45548
 30
0.0
 10
-1.27858
 20
-10.44994
 30
0.0
 10
-1.27858
 20
-10.44341
 30
0.0
 10
-1.27858
 20
-10.44341
 30
0.0
 10
-1.27858
 20
-10.43657
 30
0.0
 10
-1.28091
 20
-10.43085
 30
0.0
 10
-1.28564
 20
-10.4262
 30
0.0
 10
-1.28564
 20
-10.4262
 30
0.0
 10
-1.29037
 20
-10.42154
 30
0.0
 10
-1.29622
 20
-10.41921
 30
0.0
 10
-1.30328
 20
-10.41921
 30
0.0
 10
-1.30328
 20
-10.41921
 30
0.0
 10
-1.31037
 20
-10.41921
 30
0.0
 10
-1.31626
 20
-10.4215
 30
0.0
 10
-1.32095
 20
-10.42602
 30
0.0
 10
-1.32095
 20
-10.42602
 30
0.0
 10
-1.32564
 20
-10.43057
 30
0.0
 10
-1.32797
 20
-10.43604
 30
0.0
 10
-1.32797
 20
-10.44235
 30
0.0
  0
SPLINE
  5
7F
330
1F
100
AcDbEntity
  8
Layer 1
 62
   230
100
AcDbSpline
210
0.0
220
0.0
230
1.0
 70
    11
 71
     3
 72
    40
 73
    36
 74
     0
 42
0.0000000001
 43
0.0000000001
 40
0.0
 40
0.0
 40
0.0
 40
0.0
 40
0.1
 40
0.1
 40
0.1
 40
0.1
 40
0.2
 40
0.2
 40
0.2
 40
0.2
 40
0.3
 40
0.3
 40
0.3
 40
0.3
 40
0.4
 40
0.4
 40
0.4
 40
0.4
 40
0.5
 40
0.5
 40
0.5
 40
0.5
 40
0.6
 40
0.6
 40
0.6
 40
0.6
 40
0.7
 40
0.7
 40
0.7
 40
0.7
 40
0.8
 40
0.8
 40
0.8
 40
0.8
 40
1.0
 40
1.0
 40
1.0
 40
1.0
 10
-1.33397
 20
-10.51234
 30
0.0
 10
-1.33397
 20
-10.51763
 30
0.0
 10
-1.3327
 20
-10.52278
 30
0.0
 10
-1.33019
 20
-10.52772
 30
0.0
 10
-1.33019
 20
-10.52772
 30
0.0
 10
-1.32769
 20
-10.5327
 30
0.0
 10
-1.32395
 20
-10.53654
 30
0.0
 10
-1.31898
 20
-10.53926
 30
0.0
 10
-1.31898
 20
-10.53926
 30
0.0
 10
-1.314
 20
-10.54197
 30
0.0
 10
-1.30867
 20
-10.54335
 30
0.0
 10
-1.30296
 20
-10.54335
 30
0.0
 10
-1.30296
 20
-10.54335
 30
0.0
 10
-1.29407
 20
-10.54335
 30
0.0
 10
-1.28673
 20
-10.54049
 30
0.0
 10
-1.28095
 20
-10.53474
 30
0.0
 10
-1.28095
 20
-10.53474
 30
0.0
 10
-1.27516
 20
-10.52903
 30
0.0
 10
-1.27227
 20
-10.52176
 30
0.0
 10
-1.27227
 20
-10.51294
 30
0.0
 10
-1.27227
 20
-10.51294
 30
0.0
 10
-1.27227
 20
-10.50398
 30
0.0
 10
-1.27523
 20
-10.49657
 30
0.0
 10
-1.28119
 20
-10.49072
 30
0.0
 10
-1.28119
 20
-10.49072
 30
0.0
 10
-1.28716
 20
-10.48486
 30
0.0
 10
-1.29463
 20
-10.48193
 30
0.0
 10
-1.30359
 20
-10.48193
 30
0.0
 10
-1.30359
 20
-10.48193
 30
0.0
 10
-1.31234
 20
-10.48193
 30
0.0
 10
-1.31957
 20
-10.48483
 30
0.0
 10
-1.32533
 20
-10.49061
 30
0.0
 10
-1.32533
 20
-10.49061
 30
0.0
 10
-1.33108
 20
-10.49643
 30
0.0
 10
-1.33397
 20
-10.50366
 30
0.0
 10
-1.33397
 20
-10.51234
 30
0.0
  0
SPLINE
  5
80
330
1F
100
AcDbEntity
  8
Layer 1
 62
   230
100
AcDbSpline
210
0.0
220
0.0
230
1.0
 70
    11
 71
     3
 72
    40
 73
    36
 74
     0
 42
0.0000000001
 43
0.0000000001
 40
0.0
 40
0.0
 40
0.0
 40
0.0
 40
0.1
 40
0.1
 40
0.1
 40
0.1
 40
0.2
 40
0.2
 40
0.2
 40
0.2
 40
0.3
 40
0.3
 40
0.3
 40
0.3
 40
0.4
 40
0.4
 40
0.4
 40
0.4
 40
0.5
 40
0.5
 40
0.5
 40
0.5
 40
0.6
 40
0.6
 40
0.6
 40
0.6
 40
0.7
 40
0.7
 40
0.7
 40
0.7
 40
0.8
 40
0.8
 40
0.8
 40
0.8
 40
1.0
 40
1.0
 40
1.0
 40
1.0
 10
-5.69056
 20
-11.98605
 30
0.0
 10
-5.69056
 20
-11.98605
 30
0.0
 10
-5.70915
 20
-11.98605
 30
0.0
 10
-5.70915
 20
-11.98605
 30
0.0
 10
-5.70915
 20
-11.98605
 30
0.0
 10
-5.70915
 20
-11.98605
 30
0.0
 10
-5.70915
 20
-11.86752
 30
0.0
 10
-5.70915
 20
-11.86752
 30
0.0
 10
-5.70915
 20
-11.86752
 30
0.0
 10
-5.71363
 20
-11.87179
 30
0.0
 10
-5.71948
 20
-11.87606
 30
0.0
 10
-5.72675
 20
-11.88033
 30
0.0
 10
-5.72675
 20
-11.88033
 30
0.0
 10
-5.73405
 20
-11.88459
 30
0.0
 10
-5.74058
 20
-11.8878
 30
0.0
 10
-5.74636
 20
-11.88992
 30
0.0
 10
-5.74636
 20
-11.88992
 30
0.0
 10
-5.74636
 20
-11.88992
 30
0.0
 10
-5.74636
 20
-11.87197
 30
0.0
 10
-5.74636
 20
-11.87197
 30
0.0
 10
-5.74636
 20
-11.87197
 30
0.0
 10
-5.73596
 20
-11.86706
 30
0.0
 10
-5.72686
 20
-11.86114
 30
0.0
 10
-5.71906
 20
-11.85419
 30
0.0
 10
-5.71906
 20
-11.85419
 30
0.0
 10
-5.7113
 20
-11.8472
 30
0.0
 10
-5.70576
 20
-11.84046
 30
0.0
 10
-5.70252
 20
-11.8339
 30
0.0
 10
-5.70252
 20
-11.8339
 30
0.0
 10
-5.70252
 20
-11.8339
 30
0.0
 10
-5.69056
 20
-11.8339
 30
0.0
 10
-5.69056
 20
-11.8339
 30
0.0
 10
-5.69056
 20
-11.8339
 30
0.0
 10
-5.69056
 20
-11.8339
 30
0.0
 10
-5.69056
 20
-11.98605
 30
0.0
 10
-5.69056
 20
-11.98605
 30
0.0
  0
SPLINE
  5
81
330
1F
100
AcDbEntity
  8
Layer 1
 62
   230
100
AcDbSpline
210
0.0
220
0.0
230
1.0
 70
    11
 71
     3
 72
    92
 73
    88
 74
     0
 42
0.0000000001
 43
0.0000000001
 40
0.0
 40
0.0
 40
0.0
 40
0.0
 40
0.0434782608695652
 40
0.0434782608695652
 40
0.0434782608695652
 40
0.0434782608695652
 40
0.0869565217391304
 40
0.0869565217391304
 40
0.0869565217391304
 40
0.0869565217391304
 40
0.1304347826086956
 40
0.1304347826086956
 40
0.1304347826086956
 40
0.1304347826086956
 40
0.1739130434782609
 40
0.1739130434782609
 40
0.1739130434782609
 40
0.1739130434782609
 40
0.2173913043478261
 40
0.2173913043478261
 40
0.2173913043478261
 40
0.2173913043478261
 40
0.2608695652173913
 40
0.2608695652173913
 40
0.2608695652173913
 40
0.2608695652173913
 40
0.3043478260869565
 40
0.3043478260869565
 40
0.3043478260869565
 40
0.3043478260869565
 40
0.3478260869565217
 40
0.3478260869565217
 40
0.3478260869565217
 40
0.3478260869565217
 40
0.391304347826087
 40
0.391304347826087
 40
0.391304347826087
 40
0.391304347826087
 40
0.4347826086956522
 40
0.4347826086956522
 40
0.4347826086956522
 40
0.4347826086956522
 40
0.4782608695652174
 40
0.4782608695652174
 40
0.4782608695652174
 40
0.4782608695652174
 40
0.5217391304347826
 40
0.5217391304347826
 40
0.5217391304347826
 40
0.5217391304347826
 40
0.5652173913043478
 40
0.5652173913043478
 40
0.5652173913043478
 40
0.5652173913043478
 40
0.6086956521739131
 40
0.6086956521739131
 40
0.6086956521739131
 40
0.6086956521739131
 40
0.6521739130434783
 40
0.6521739130434783
 40
0.6521739130434783
 40
0.6521739130434783
 40
0.6956521739130435
 40
0.6956521739130435
 40
0.6956521739130435
 40
0.6956521739130435
 40
0.7391304347826086
 40
0.7391304347826086
 40
0.7391304347826086
 40
0.7391304347826086
 40
0.782608695652174
 40
0.782608695652174
 40
0.782608695652174
 40
0.782608695652174
 40
0.8260869565217391
 40
0.8260869565217391
 40
0.8260869565217391
 40
0.8260869565217391
 40
0.8695652173913043
 40
0.8695652173913043
 40
0.8695652173913043
 40
0.8695652173913043
 40
0.9130434782608695
 40
0.9130434782608695
 40
0.9130434782608695
 40
0.9130434782608695
 40
1.0
 40
1.0
 40
1.0
 40
1.0
 10
-5.64011
 20
-11.95102
 30
0.0
 10
-5.64011
 20
-11.95102
 30
0.0
 10
-5.62222
 20
-11.94936
 30
0.0
 10
-5.62222
 20
-11.94936
 30
0.0
 10
-5.62222
 20
-11.94936
 30
0.0
 10
-5.62071
 20
-11.95776
 30
0.0
 10
-5.61781
 20
-11.96386
 30
0.0
 10
-5.61355
 20
-11.96767
 30
0.0
 10
-5.61355
 20
-11.96767
 30
0.0
 10
-5.60928
 20
-11.97145
 30
0.0
 10
-5.60381
 20
-11.97335
 30
0.0
 10
-5.59711
 20
-11.97335
 30
0.0
 10
-5.59711
 20
-11.97335
 30
0.0
 10
-5.59139
 20
-11.97335
 30
0.0
 10
-5.58638
 20
-11.97205
 30
0.0
 10
-5.58208
 20
-11.9694
 30
0.0
 10
-5.58208
 20
-11.9694
 30
0.0
 10
-5.57778
 20
-11.96679
 30
0.0
 10
-5.57425
 20
-11.9633
 30
0.0
 10
-5.5715
 20
-11.95892
 30
0.0
 10
-5.5715
 20
-11.95892
 30
0.0
 10
-5.56871
 20
-11.95455
 30
0.0
 10
-5.56642
 20
-11.94862
 30
0.0
 10
-5.56455
 20
-11.94121
 30
0.0
 10
-5.56455
 20
-11.94121
 30
0.0
 10
-5.56271
 20
-11.93377
 30
0.0
 10
-5.56176
 20
-11.92619
 30
0.0
 10
-5.56176
 20
-11.91846
 30
0.0
 10
-5.56176
 20
-11.91846
 30
0.0
 10
-5.56176
 20
-11.91765
 30
0.0
 10
-5.5618
 20
-11.91638
 30
0.0
 10
-5.56187
 20
-11.91476
 30
0.0
 10
-5.56187
 20
-11.91476
 30
0.0
 10
-5.5656
 20
-11.92065
 30
0.0
 10
-5.57068
 20
-11.92548
 30
0.0
 10
-5.57711
 20
-11.92915
 30
0.0
 10
-5.57711
 20
-11.92915
 30
0.0
 10
-5.58356
 20
-11.93285
 30
0.0
 10
-5.59055
 20
-11.93469
 30
0.0
 10
-5.59802
 20
-11.93469
 30
0.0
 10
-5.59802
 20
-11.93469
 30
0.0
 10
-5.61058
 20
-11.93469
 30
0.0
 10
-5.6212
 20
-11.93014
 30
0.0
 10
-5.62988
 20
-11.92104
 30
0.0
 10
-5.62988
 20
-11.92104
 30
0.0
 10
-5.63856
 20
-11.91193
 30
0.0
 10
-5.6429
 20
-11.89997
 30
0.0
 10
-5.6429
 20
-11.88509
 30
0.0
 10
-5.6429
 20
-11.88509
 30
0.0
 10
-5.6429
 20
-11.86971
 30
0.0
 10
-5.63838
 20
-11.85736
 30
0.0
 10
-5.62931
 20
-11.84798
 30
0.0
 10
-5.62931
 20
-11.84798
 30
0.0
 10
-5.62025
 20
-11.83859
 30
0.0
 10
-5.60889
 20
-11.8339
 30
0.0
 10
-5.59524
 20
-11.8339
 30
0.0
 10
-5.59524
 20
-11.8339
 30
0.0
 10
-5.5854
 20
-11.8339
 30
0.0
 10
-5.5764
 20
-11.83658
 30
0.0
 10
-5.56822
 20
-11.84187
 30
0.0
 10
-5.56822
 20
-11.84187
 30
0.0
 10
-5.56007
 20
-11.84717
 30
0.0
 10
-5.55386
 20
-11.85475
 30
0.0
 10
-5.54962
 20
-11.86456
 30
0.0
 10
-5.54962
 20
-11.86456
 30
0.0
 10
-5.54539
 20
-11.87436
 30
0.0
 10
-5.54327
 20
-11.88858
 30
0.0
 10
-5.54327
 20
-11.90721
 30
0.0
 10
-5.54327
 20
-11.90721
 30
0.0
 10
-5.54327
 20
-11.92654
 30
0.0
 10
-5.54536
 20
-11.94195
 30
0.0
 10
-5.54955
 20
-11.95345
 30
0.0
 10
-5.54955
 20
-11.95345
 30
0.0
 10
-5.55379
 20
-11.96492
 30
0.0
 10
-5.56003
 20
-11.97363
 30
0.0
 10
-5.56832
 20
-11.97963
 30
0.0
 10
-5.56832
 20
-11.97963
 30
0.0
 10
-5.57665
 20
-11.98563
 30
0.0
 10
-5.58635
 20
-11.98863
 30
0.0
 10
-5.59753
 20
-11.98863
 30
0.0
 10
-5.59753
 20
-11.98863
 30
0.0
 10
-5.60938
 20
-11.98863
 30
0.0
 10
-5.61905
 20
-11.98534
 30
0.0
 10
-5.62656
 20
-11.97875
 30
0.0
 10
-5.62656
 20
-11.97875
 30
0.0
 10
-5.63408
 20
-11.97219
 30
0.0
 10
-5.63859
 20
-11.96294
 30
0.0
 10
-5.64011
 20
-11.95102
 30
0.0
  0
SPLINE
  5
82
330
1F
100
AcDbEntity
  8
Layer 1
 62
   230
100
AcDbSpline
210
0.0
220
0.0
230
1.0
 70
    11
 71
     3
 72
    36
 73
    32
 74
     0
 42
0.0000000001
 43
0.0000000001
 40
0.0
 40
0.0
 40
0.0
 40
0.0
 40
0.1111111111111111
 40
0.1111111111111111
 40
0.1111111111111111
 40
0.1111111111111111
 40
0.2222222222222222
 40
0.2222222222222222
 40
0.2222222222222222
 40
0.2222222222222222
 40
0.3333333333333333
 40
0.3333333333333333
 40
0.3333333333333333
 40
0.3333333333333333
 40
0.4444444444444444
 40
0.4444444444444444
 40
0.4444444444444444
 40
0.4444444444444444
 40
0.5555555555555556
 40
0.5555555555555556
 40
0.5555555555555556
 40
0.5555555555555556
 40
0.6666666666666666
 40
0.6666666666666666
 40
0.6666666666666666
 40
0.6666666666666666
 40
0.7777777777777778
 40
0.7777777777777778
 40
0.7777777777777778
 40
0.7777777777777778
 40
1.0
 40
1.0
 40
1.0
 40
1.0
 10
-5.56395
 20
-11.88414
 30
0.0
 10
-5.56395
 20
-11.87348
 30
0.0
 10
-5.56677
 20
-11.86498
 30
0.0
 10
-5.57245
 20
-11.85874
 30
0.0
 10
-5.57245
 20
-11.85874
 30
0.0
 10
-5.57816
 20
-11.85246
 30
0.0
 10
-5.58497
 20
-11.84932
 30
0.0
 10
-5.59298
 20
-11.84932
 30
0.0
 10
-5.59298
 20
-11.84932
 30
0.0
 10
-5.60123
 20
-11.84932
 30
0.0
 10
-5.60843
 20
-11.8527
 30
0.0
 10
-5.61457
 20
-11.85944
 30
0.0
 10
-5.61457
 20
-11.85944
 30
0.0
 10
-5.62071
 20
-11.86622
 30
0.0
 10
-5.62378
 20
-11.87496
 30
0.0
 10
-5.62378
 20
-11.88569
 30
0.0
 10
-5.62378
 20
-11.88569
 30
0.0
 10
-5.62378
 20
-11.89535
 30
0.0
 10
-5.62085
 20
-11.90319
 30
0.0
 10
-5.61503
 20
-11.90922
 30
0.0
 10
-5.61503
 20
-11.90922
 30
0.0
 10
-5.60921
 20
-11.91525
 30
0.0
 10
-5.60205
 20
-11.91825
 30
0.0
 10
-5.59351
 20
-11.91825
 30
0.0
 10
-5.59351
 20
-11.91825
 30
0.0
 10
-5.58487
 20
-11.91825
 30
0.0
 10
-5.57781
 20
-11.91525
 30
0.0
 10
-5.57227
 20
-11.90922
 30
0.0
 10
-5.57227
 20
-11.90922
 30
0.0
 10
-5.5667
 20
-11.90319
 30
0.0
 10
-5.56395
 20
-11.89482
 30
0.0
 10
-5.56395
 20
-11.88414
 30
0.0
  0
SPLINE
  5
83
330
1F
100
AcDbEntity
  8
Layer 1
 62
   230
100
AcDbSpline
210
0.0
220
0.0
230
1.0
 70
    11
 71
     3
 72
    92
 73
    88
 74
     0
 42
0.0000000001
 43
0.0000000001
 40
0.0
 40
0.0
 40
0.0
 40
0.0
 40
0.0434782608695652
 40
0.0434782608695652
 40
0.0434782608695652
 40
0.0434782608695652
 40
0.0869565217391304
 40
0.0869565217391304
 40
0.0869565217391304
 40
0.0869565217391304
 40
0.1304347826086956
 40
0.1304347826086956
 40
0.1304347826086956
 40
0.1304347826086956
 40
0.1739130434782609
 40
0.1739130434782609
 40
0.1739130434782609
 40
0.1739130434782609
 40
0.2173913043478261
 40
0.2173913043478261
 40
0.2173913043478261
 40
0.2173913043478261
 40
0.2608695652173913
 40
0.2608695652173913
 40
0.2608695652173913
 40
0.2608695652173913
 40
0.3043478260869565
 40
0.3043478260869565
 40
0.3043478260869565
 40
0.3043478260869565
 40
0.3478260869565217
 40
0.3478260869565217
 40
0.3478260869565217
 40
0.3478260869565217
 40
0.391304347826087
 40
0.391304347826087
 40
0.391304347826087
 40
0.391304347826087
 40
0.4347826086956522
 40
0.4347826086956522
 40
0.4347826086956522
 40
0.4347826086956522
 40
0.4782608695652174
 40
0.4782608695652174
 40
0.4782608695652174
 40
0.4782608695652174
 40
0.5217391304347826
 40
0.5217391304347826
 40
0.5217391304347826
 40
0.5217391304347826
 40
0.5652173913043478
 40
0.5652173913043478
 40
0.5652173913043478
 40
0.5652173913043478
 40
0.6086956521739131
 40
0.6086956521739131
 40
0.6086956521739131
 40
0.6086956521739131
 40
0.6521739130434783
 40
0.6521739130434783
 40
0.6521739130434783
 40
0.6521739130434783
 40
0.6956521739130435
 40
0.6956521739130435
 40
0.6956521739130435
 40
0.6956521739130435
 40
0.7391304347826086
 40
0.7391304347826086
 40
0.7391304347826086
 40
0.7391304347826086
 40
0.782608695652174
 40
0.782608695652174
 40
0.782608695652174
 40
0.782608695652174
 40
0.8260869565217391
 40
0.8260869565217391
 40
0.8260869565217391
 40
0.8260869565217391
 40
0.8695652173913043
 40
0.8695652173913043
 40
0.8695652173913043
 40
0.8695652173913043
 40
0.9130434782608695
 40
0.9130434782608695
 40
0.9130434782608695
 40
0.9130434782608695
 40
1.0
 40
1.0
 40
1.0
 40
1.0
 10
-4.23285
 20
-11.96816
 30
0.0
 10
-4.23285
 20
-11.96816
 30
0.0
 10
-4.23285
 20
-11.98605
 30
0.0
 10
-4.23285
 20
-11.98605
 30
0.0
 10
-4.23285
 20
-11.98605
 30
0.0
 10
-4.23285
 20
-11.98605
 30
0.0
 10
-4.333
 20
-11.98605
 30
0.0
 10
-4.333
 20
-11.98605
 30
0.0
 10
-4.333
 20
-11.98605
 30
0.0
 10
-4.33314
 20
-11.98157
 30
0.0
 10
-4.33244
 20
-11.97727
 30
0.0
 10
-4.33085
 20
-11.97314
 30
0.0
 10
-4.33085
 20
-11.97314
 30
0.0
 10
-4.32831
 20
-11.9663
 30
0.0
 10
-4.32422
 20
-11.95959
 30
0.0
 10
-4.31861
 20
-11.95296
 30
0.0
 10
-4.31861
 20
-11.95296
 30
0.0
 10
-4.31296
 20
-11.94636
 30
0.0
 10
-4.30485
 20
-11.93871
 30
0.0
 10
-4.29427
 20
-11.93003
 30
0.0
 10
-4.29427
 20
-11.93003
 30
0.0
 10
-4.27779
 20
-11.91652
 30
0.0
 10
-4.26664
 20
-11.90583
 30
0.0
 10
-4.26086
 20
-11.89793
 30
0.0
 10
-4.26086
 20
-11.89793
 30
0.0
 10
-4.25507
 20
-11.89006
 30
0.0
 10
-4.25218
 20
-11.88258
 30
0.0
 10
-4.25218
 20
-11.87556
 30
0.0
 10
-4.25218
 20
-11.87556
 30
0.0
 10
-4.25218
 20
-11.86819
 30
0.0
 10
-4.25483
 20
-11.86198
 30
0.0
 10
-4.26008
 20
-11.8569
 30
0.0
 10
-4.26008
 20
-11.8569
 30
0.0
 10
-4.26537
 20
-11.85186
 30
0.0
 10
-4.27225
 20
-11.84932
 30
0.0
 10
-4.28072
 20
-11.84932
 30
0.0
 10
-4.28072
 20
-11.84932
 30
0.0
 10
-4.28968
 20
-11.84932
 30
0.0
 10
-4.29684
 20
-11.852
 30
0.0
 10
-4.3022
 20
-11.8574
 30
0.0
 10
-4.3022
 20
-11.8574
 30
0.0
 10
-4.3076
 20
-11.86276
 30
0.0
 10
-4.31032
 20
-11.8702
 30
0.0
 10
-4.31039
 20
-11.87969
 30
0.0
 10
-4.31039
 20
-11.87969
 30
0.0
 10
-4.31039
 20
-11.87969
 30
0.0
 10
-4.32951
 20
-11.87775
 30
0.0
 10
-4.32951
 20
-11.87775
 30
0.0
 10
-4.32951
 20
-11.87775
 30
0.0
 10
-4.3282
 20
-11.86346
 30
0.0
 10
-4.32326
 20
-11.8526
 30
0.0
 10
-4.31473
 20
-11.84512
 30
0.0
 10
-4.31473
 20
-11.84512
 30
0.0
 10
-4.30619
 20
-11.83764
 30
0.0
 10
-4.29469
 20
-11.8339
 30
0.0
 10
-4.2803
 20
-11.8339
 30
0.0
 10
-4.2803
 20
-11.8339
 30
0.0
 10
-4.26576
 20
-11.8339
 30
0.0
 10
-4.25426
 20
-11.83796
 30
0.0
 10
-4.2458
 20
-11.846
 30
0.0
 10
-4.2458
 20
-11.846
 30
0.0
 10
-4.23729
 20
-11.85408
 30
0.0
 10
-4.23306
 20
-11.86406
 30
0.0
 10
-4.23306
 20
-11.87599
 30
0.0
 10
-4.23306
 20
-11.87599
 30
0.0
 10
-4.23306
 20
-11.88205
 30
0.0
 10
-4.2343
 20
-11.88802
 30
0.0
 10
-4.2368
 20
-11.89387
 30
0.0
 10
-4.2368
 20
-11.89387
 30
0.0
 10
-4.23927
 20
-11.89973
 30
0.0
 10
-4.2434
 20
-11.9059
 30
0.0
 10
-4.24915
 20
-11.91236
 30
0.0
 10
-4.24915
 20
-11.91236
 30
0.0
 10
-4.2549
 20
-11.91885
 30
0.0
 10
-4.26446
 20
-11.92774
 30
0.0
 10
-4.27783
 20
-11.93903
 30
0.0
 10
-4.27783
 20
-11.93903
 30
0.0
 10
-4.28897
 20
-11.94841
 30
0.0
 10
-4.29614
 20
-11.95476
 30
0.0
 10
-4.29931
 20
-11.95811
 30
0.0
 10
-4.29931
 20
-11.95811
 30
0.0
 10
-4.30249
 20
-11.96143
 30
0.0
 10
-4.3051
 20
-11.96478
 30
0.0
 10
-4.30718
 20
-11.96816
 30
0.0
 10
-4.30718
 20
-11.96816
 30
0.0
 10
-4.30718
 20
-11.96816
 30
0.0
 10
-4.23285
 20
-11.96816
 30
0.0
 10
-4.23285
 20
-11.96816
 30
0.0
  0
SPLINE
  5
84
330
1F
100
AcDbEntity
  8
Layer 1
 62
   230
100
AcDbSpline
210
0.0
220
0.0
230
1.0
 70
    11
 71
     3
 72
    52
 73
    48
 74
     0
 42
0.0000000001
 43
0.0000000001
 40
0.0
 40
0.0
 40
0.0
 40
0.0
 40
0.0769230769230769
 40
0.0769230769230769
 40
0.0769230769230769
 40
0.0769230769230769
 40
0.1538461538461539
 40
0.1538461538461539
 40
0.1538461538461539
 40
0.1538461538461539
 40
0.2307692307692308
 40
0.2307692307692308
 40
0.2307692307692308
 40
0.2307692307692308
 40
0.3076923076923077
 40
0.3076923076923077
 40
0.3076923076923077
 40
0.3076923076923077
 40
0.3846153846153846
 40
0.3846153846153846
 40
0.3846153846153846
 40
0.3846153846153846
 40
0.4615384615384616
 40
0.4615384615384616
 40
0.4615384615384616
 40
0.4615384615384616
 40
0.5384615384615384
 40
0.5384615384615384
 40
0.5384615384615384
 40
0.5384615384615384
 40
0.6153846153846154
 40
0.6153846153846154
 40
0.6153846153846154
 40
0.6153846153846154
 40
0.6923076923076923
 40
0.6923076923076923
 40
0.6923076923076923
 40
0.6923076923076923
 40
0.7692307692307693
 40
0.7692307692307693
 40
0.7692307692307693
 40
0.7692307692307693
 40
0.8461538461538461
 40
0.8461538461538461
 40
0.8461538461538461
 40
0.8461538461538461
 40
1.0
 40
1.0
 40
1.0
 40
1.0
 10
-4.21292
 20
-11.91133
 30
0.0
 10
-4.21292
 20
-11.89341
 30
0.0
 10
-4.21108
 20
-11.87899
 30
0.0
 10
-4.20738
 20
-11.86808
 30
0.0
 10
-4.20738
 20
-11.86808
 30
0.0
 10
-4.20371
 20
-11.85715
 30
0.0
 10
-4.19821
 20
-11.84872
 30
0.0
 10
-4.19094
 20
-11.84279
 30
0.0
 10
-4.19094
 20
-11.84279
 30
0.0
 10
-4.18367
 20
-11.83686
 30
0.0
 10
-4.17454
 20
-11.8339
 30
0.0
 10
-4.16353
 20
-11.8339
 30
0.0
 10
-4.16353
 20
-11.8339
 30
0.0
 10
-4.15538
 20
-11.8339
 30
0.0
 10
-4.14825
 20
-11.83556
 30
0.0
 10
-4.14212
 20
-11.83884
 30
0.0
 10
-4.14212
 20
-11.83884
 30
0.0
 10
-4.13598
 20
-11.84209
 30
0.0
 10
-4.13093
 20
-11.84681
 30
0.0
 10
-4.12691
 20
-11.85299
 30
0.0
 10
-4.12691
 20
-11.85299
 30
0.0
 10
-4.12293
 20
-11.85916
 30
0.0
 10
-4.11979
 20
-11.86667
 30
0.0
 10
-4.11753
 20
-11.87553
 30
0.0
 10
-4.11753
 20
-11.87553
 30
0.0
 10
-4.11524
 20
-11.88438
 30
0.0
 10
-4.11411
 20
-11.89631
 30
0.0
 10
-4.11411
 20
-11.91133
 30
0.0
 10
-4.11411
 20
-11.91133
 30
0.0
 10
-4.11411
 20
-11.92911
 30
0.0
 10
-4.11594
 20
-11.94344
 30
0.0
 10
-4.11957
 20
-11.95437
 30
0.0
 10
-4.11957
 20
-11.95437
 30
0.0
 10
-4.12324
 20
-11.96531
 30
0.0
 10
-4.12871
 20
-11.97374
 30
0.0
 10
-4.13598
 20
-11.9797
 30
0.0
 10
-4.13598
 20
-11.9797
 30
0.0
 10
-4.14324
 20
-11.98566
 30
0.0
 10
-4.15242
 20
-11.98863
 30
0.0
 10
-4.16353
 20
-11.98863
 30
0.0
 10
-4.16353
 20
-11.98863
 30
0.0
 10
-4.17813
 20
-11.98863
 30
0.0
 10
-4.1896
 20
-11.9834
 30
0.0
 10
-4.19792
 20
-11.97293
 30
0.0
 10
-4.19792
 20
-11.97293
 30
0.0
 10
-4.20791
 20
-11.96033
 30
0.0
 10
-4.21292
 20
-11.93977
 30
0.0
 10
-4.21292
 20
-11.91133
 30
0.0
  0
SPLINE
  5
85
330
1F
100
AcDbEntity
  8
Layer 1
 62
   230
100
AcDbSpline
210
0.0
220
0.0
230
1.0
 70
    11
 71
     3
 72
    36
 73
    32
 74
     0
 42
0.0000000001
 43
0.0000000001
 40
0.0
 40
0.0
 40
0.0
 40
0.0
 40
0.1111111111111111
 40
0.1111111111111111
 40
0.1111111111111111
 40
0.1111111111111111
 40
0.2222222222222222
 40
0.2222222222222222
 40
0.2222222222222222
 40
0.2222222222222222
 40
0.3333333333333333
 40
0.3333333333333333
 40
0.3333333333333333
 40
0.3333333333333333
 40
0.4444444444444444
 40
0.4444444444444444
 40
0.4444444444444444
 40
0.4444444444444444
 40
0.5555555555555556
 40
0.5555555555555556
 40
0.5555555555555556
 40
0.5555555555555556
 40
0.6666666666666666
 40
0.6666666666666666
 40
0.6666666666666666
 40
0.6666666666666666
 40
0.7777777777777778
 40
0.7777777777777778
 40
0.7777777777777778
 40
0.7777777777777778
 40
1.0
 40
1.0
 40
1.0
 40
1.0
 10
-4.1938
 20
-11.91133
 30
0.0
 10
-4.1938
 20
-11.9362
 30
0.0
 10
-4.19087
 20
-11.95275
 30
0.0
 10
-4.18505
 20
-11.961
 30
0.0
 10
-4.18505
 20
-11.961
 30
0.0
 10
-4.17923
 20
-11.96922
 30
0.0
 10
-4.17207
 20
-11.97335
 30
0.0
 10
-4.16353
 20
-11.97335
 30
0.0
 10
-4.16353
 20
-11.97335
 30
0.0
 10
-4.15496
 20
-11.97335
 30
0.0
 10
-4.1478
 20
-11.96919
 30
0.0
 10
-4.14197
 20
-11.96093
 30
0.0
 10
-4.14197
 20
-11.96093
 30
0.0
 10
-4.13615
 20
-11.95268
 30
0.0
 10
-4.13323
 20
-11.93613
 30
0.0
 10
-4.13323
 20
-11.91133
 30
0.0
 10
-4.13323
 20
-11.91133
 30
0.0
 10
-4.13323
 20
-11.88639
 30
0.0
 10
-4.13615
 20
-11.86981
 30
0.0
 10
-4.14197
 20
-11.86163
 30
0.0
 10
-4.14197
 20
-11.86163
 30
0.0
 10
-4.1478
 20
-11.85341
 30
0.0
 10
-4.15503
 20
-11.84932
 30
0.0
 10
-4.16371
 20
-11.84932
 30
0.0
 10
-4.16371
 20
-11.84932
 30
0.0
 10
-4.17228
 20
-11.84932
 30
0.0
 10
-4.17909
 20
-11.85295
 30
0.0
 10
-4.1842
 20
-11.86018
 30
0.0
 10
-4.1842
 20
-11.86018
 30
0.0
 10
-4.19059
 20
-11.86939
 30
0.0
 10
-4.1938
 20
-11.88646
 30
0.0
 10
-4.1938
 20
-11.91133
 30
0.0
  0
SPLINE
  5
86
330
1F
100
AcDbEntity
  8
Layer 1
 62
   230
100
AcDbSpline
210
0.0
220
0.0
230
1.0
 70
    11
 71
     3
 72
    92
 73
    88
 74
     0
 42
0.0000000001
 43
0.0000000001
 40
0.0
 40
0.0
 40
0.0
 40
0.0
 40
0.0434782608695652
 40
0.0434782608695652
 40
0.0434782608695652
 40
0.0434782608695652
 40
0.0869565217391304
 40
0.0869565217391304
 40
0.0869565217391304
 40
0.0869565217391304
 40
0.1304347826086956
 40
0.1304347826086956
 40
0.1304347826086956
 40
0.1304347826086956
 40
0.1739130434782609
 40
0.1739130434782609
 40
0.1739130434782609
 40
0.1739130434782609
 40
0.2173913043478261
 40
0.2173913043478261
 40
0.2173913043478261
 40
0.2173913043478261
 40
0.2608695652173913
 40
0.2608695652173913
 40
0.2608695652173913
 40
0.2608695652173913
 40
0.3043478260869565
 40
0.3043478260869565
 40
0.3043478260869565
 40
0.3043478260869565
 40
0.3478260869565217
 40
0.3478260869565217
 40
0.3478260869565217
 40
0.3478260869565217
 40
0.391304347826087
 40
0.391304347826087
 40
0.391304347826087
 40
0.391304347826087
 40
0.4347826086956522
 40
0.4347826086956522
 40
0.4347826086956522
 40
0.4347826086956522
 40
0.4782608695652174
 40
0.4782608695652174
 40
0.4782608695652174
 40
0.4782608695652174
 40
0.5217391304347826
 40
0.5217391304347826
 40
0.5217391304347826
 40
0.5217391304347826
 40
0.5652173913043478
 40
0.5652173913043478
 40
0.5652173913043478
 40
0.5652173913043478
 40
0.6086956521739131
 40
0.6086956521739131
 40
0.6086956521739131
 40
0.6086956521739131
 40
0.6521739130434783
 40
0.6521739130434783
 40
0.6521739130434783
 40
0.6521739130434783
 40
0.6956521739130435
 40
0.6956521739130435
 40
0.6956521739130435
 40
0.6956521739130435
 40
0.7391304347826086
 40
0.7391304347826086
 40
0.7391304347826086
 40
0.7391304347826086
 40
0.782608695652174
 40
0.782608695652174
 40
0.782608695652174
 40
0.782608695652174
 40
0.8260869565217391
 40
0.8260869565217391
 40
0.8260869565217391
 40
0.8260869565217391
 40
0.8695652173913043
 40
0.8695652173913043
 40
0.8695652173913043
 40
0.8695652173913043
 40
0.9130434782608695
 40
0.9130434782608695
 40
0.9130434782608695
 40
0.9130434782608695
 40
1.0
 40
1.0
 40
1.0
 40
1.0
 10
-2.80285
 20
-11.96816
 30
0.0
 10
-2.80285
 20
-11.96816
 30
0.0
 10
-2.80285
 20
-11.98605
 30
0.0
 10
-2.80285
 20
-11.98605
 30
0.0
 10
-2.80285
 20
-11.98605
 30
0.0
 10
-2.80285
 20
-11.98605
 30
0.0
 10
-2.903
 20
-11.98605
 30
0.0
 10
-2.903
 20
-11.98605
 30
0.0
 10
-2.903
 20
-11.98605
 30
0.0
 10
-2.90314
 20
-11.98157
 30
0.0
 10
-2.90244
 20
-11.97727
 30
0.0
 10
-2.90085
 20
-11.97314
 30
0.0
 10
-2.90085
 20
-11.97314
 30
0.0
 10
-2.89831
 20
-11.9663
 30
0.0
 10
-2.89422
 20
-11.95959
 30
0.0
 10
-2.88861
 20
-11.95296
 30
0.0
 10
-2.88861
 20
-11.95296
 30
0.0
 10
-2.88296
 20
-11.94636
 30
0.0
 10
-2.87485
 20
-11.93871
 30
0.0
 10
-2.86427
 20
-11.93003
 30
0.0
 10
-2.86427
 20
-11.93003
 30
0.0
 10
-2.84779
 20
-11.91652
 30
0.0
 10
-2.83664
 20
-11.90583
 30
0.0
 10
-2.83086
 20
-11.89793
 30
0.0
 10
-2.83086
 20
-11.89793
 30
0.0
 10
-2.82507
 20
-11.89006
 30
0.0
 10
-2.82218
 20
-11.88258
 30
0.0
 10
-2.82218
 20
-11.87556
 30
0.0
 10
-2.82218
 20
-11.87556
 30
0.0
 10
-2.82218
 20
-11.86819
 30
0.0
 10
-2.82483
 20
-11.86198
 30
0.0
 10
-2.83008
 20
-11.8569
 30
0.0
 10
-2.83008
 20
-11.8569
 30
0.0
 10
-2.83537
 20
-11.85186
 30
0.0
 10
-2.84225
 20
-11.84932
 30
0.0
 10
-2.85072
 20
-11.84932
 30
0.0
 10
-2.85072
 20
-11.84932
 30
0.0
 10
-2.85968
 20
-11.84932
 30
0.0
 10
-2.86684
 20
-11.852
 30
0.0
 10
-2.8722
 20
-11.8574
 30
0.0
 10
-2.8722
 20
-11.8574
 30
0.0
 10
-2.8776
 20
-11.86276
 30
0.0
 10
-2.88032
 20
-11.8702
 30
0.0
 10
-2.88039
 20
-11.87969
 30
0.0
 10
-2.88039
 20
-11.87969
 30
0.0
 10
-2.88039
 20
-11.87969
 30
0.0
 10
-2.89951
 20
-11.87775
 30
0.0
 10
-2.89951
 20
-11.87775
 30
0.0
 10
-2.89951
 20
-11.87775
 30
0.0
 10
-2.8982
 20
-11.86346
 30
0.0
 10
-2.89326
 20
-11.8526
 30
0.0
 10
-2.88473
 20
-11.84512
 30
0.0
 10
-2.88473
 20
-11.84512
 30
0.0
 10
-2.87619
 20
-11.83764
 30
0.0
 10
-2.86469
 20
-11.8339
 30
0.0
 10
-2.8503
 20
-11.8339
 30
0.0
 10
-2.8503
 20
-11.8339
 30
0.0
 10
-2.83576
 20
-11.8339
 30
0.0
 10
-2.82426
 20
-11.83796
 30
0.0
 10
-2.8158
 20
-11.846
 30
0.0
 10
-2.8158
 20
-11.846
 30
0.0
 10
-2.80729
 20
-11.85408
 30
0.0
 10
-2.80306
 20
-11.86406
 30
0.0
 10
-2.80306
 20
-11.87599
 30
0.0
 10
-2.80306
 20
-11.87599
 30
0.0
 10
-2.80306
 20
-11.88205
 30
0.0
 10
-2.8043
 20
-11.88802
 30
0.0
 10
-2.8068
 20
-11.89387
 30
0.0
 10
-2.8068
 20
-11.89387
 30
0.0
 10
-2.80927
 20
-11.89973
 30
0.0
 10
-2.8134
 20
-11.9059
 30
0.0
 10
-2.81915
 20
-11.91236
 30
0.0
 10
-2.81915
 20
-11.91236
 30
0.0
 10
-2.8249
 20
-11.91885
 30
0.0
 10
-2.83446
 20
-11.92774
 30
0.0
 10
-2.84783
 20
-11.93903
 30
0.0
 10
-2.84783
 20
-11.93903
 30
0.0
 10
-2.85897
 20
-11.94841
 30
0.0
 10
-2.86614
 20
-11.95476
 30
0.0
 10
-2.86931
 20
-11.95811
 30
0.0
 10
-2.86931
 20
-11.95811
 30
0.0
 10
-2.87249
 20
-11.96143
 30
0.0
 10
-2.8751
 20
-11.96478
 30
0.0
 10
-2.87718
 20
-11.96816
 30
0.0
 10
-2.87718
 20
-11.96816
 30
0.0
 10
-2.87718
 20
-11.96816
 30
0.0
 10
-2.80285
 20
-11.96816
 30
0.0
 10
-2.80285
 20
-11.96816
 30
0.0
  0
SPLINE
  5
87
330
1F
100
AcDbEntity
  8
Layer 1
 62
   230
100
AcDbSpline
210
0.0
220
0.0
230
1.0
 70
    11
 71
     3
 72
    40
 73
    36
 74
     0
 42
0.0000000001
 43
0.0000000001
 40
0.0
 40
0.0
 40
0.0
 40
0.0
 40
0.1
 40
0.1
 40
0.1
 40
0.1
 40
0.2
 40
0.2
 40
0.2
 40
0.2
 40
0.3
 40
0.3
 40
0.3
 40
0.3
 40
0.4
 40
0.4
 40
0.4
 40
0.4
 40
0.5
 40
0.5
 40
0.5
 40
0.5
 40
0.6
 40
0.6
 40
0.6
 40
0.6
 40
0.7
 40
0.7
 40
0.7
 40
0.7
 40
0.8
 40
0.8
 40
0.8
 40
0.8
 40
1.0
 40
1.0
 40
1.0
 40
1.0
 10
-2.71286
 20
-11.98605
 30
0.0
 10
-2.71286
 20
-11.98605
 30
0.0
 10
-2.73145
 20
-11.98605
 30
0.0
 10
-2.73145
 20
-11.98605
 30
0.0
 10
-2.73145
 20
-11.98605
 30
0.0
 10
-2.73145
 20
-11.98605
 30
0.0
 10
-2.73145
 20
-11.86752
 30
0.0
 10
-2.73145
 20
-11.86752
 30
0.0
 10
-2.73145
 20
-11.86752
 30
0.0
 10
-2.73593
 20
-11.87179
 30
0.0
 10
-2.74178
 20
-11.87606
 30
0.0
 10
-2.74905
 20
-11.88033
 30
0.0
 10
-2.74905
 20
-11.88033
 30
0.0
 10
-2.75635
 20
-11.88459
 30
0.0
 10
-2.76288
 20
-11.8878
 30
0.0
 10
-2.76866
 20
-11.88992
 30
0.0
 10
-2.76866
 20
-11.88992
 30
0.0
 10
-2.76866
 20
-11.88992
 30
0.0
 10
-2.76866
 20
-11.87197
 30
0.0
 10
-2.76866
 20
-11.87197
 30
0.0
 10
-2.76866
 20
-11.87197
 30
0.0
 10
-2.75826
 20
-11.86706
 30
0.0
 10
-2.74916
 20
-11.86114
 30
0.0
 10
-2.74136
 20
-11.85419
 30
0.0
 10
-2.74136
 20
-11.85419
 30
0.0
 10
-2.7336
 20
-11.8472
 30
0.0
 10
-2.72806
 20
-11.84046
 30
0.0
 10
-2.72482
 20
-11.8339
 30
0.0
 10
-2.72482
 20
-11.8339
 30
0.0
 10
-2.72482
 20
-11.8339
 30
0.0
 10
-2.71286
 20
-11.8339
 30
0.0
 10
-2.71286
 20
-11.8339
 30
0.0
 10
-2.71286
 20
-11.8339
 30
0.0
 10
-2.71286
 20
-11.8339
 30
0.0
 10
-2.71286
 20
-11.98605
 30
0.0
 10
-2.71286
 20
-11.98605
 30
0.0
  0
SPLINE
  5
88
330
1F
100
AcDbEntity
  8
Layer 1
 62
   230
370
     9
100
AcDbSpline
210
0.0
220
0.0
230
1.0
 70
    11
 71
     3
 72
    32
 73
    28
 74
     0
 42
0.0000000001
 43
0.0000000001
 40
0.0
 40
0.0
 40
0.0
 40
0.0
 40
0.125
 40
0.125
 40
0.125
 40
0.125
 40
0.25
 40
0.25
 40
0.25
 40
0.25
 40
0.375
 40
0.375
 40
0.375
 40
0.375
 40
0.5
 40
0.5
 40
0.5
 40
0.5
 40
0.625
 40
0.625
 40
0.625
 40
0.625
 40
0.75
 40
0.75
 40
0.75
 40
0.75
 40
1.0
 40
1.0
 40
1.0
 40
1.0
 10
-3.69999
 20
-5.95
 30
0.0
 10
-3.69999
 20
-5.95
 30
0.0
 10
-4.5
 20
-5.25
 30
0.0
 10
-4.5
 20
-5.25
 30
0.0
 10
-4.5
 20
-5.25
 30
0.0
 10
-4.5
 20
-5.25
 30
0.0
 10
-5.29999
 20
-5.95
 30
0.0
 10
-5.29999
 20
-5.95
 30
0.0
 10
-5.29999
 20
-5.95
 30
0.0
 10
-5.29999
 20
-5.95
 30
0.0
 10
-4.79999
 20
-5.84999
 30
0.0
 10
-4.79999
 20
-5.84999
 30
0.0
 10
-4.79999
 20
-5.84999
 30
0.0
 10
-4.79999
 20
-5.84999
 30
0.0
 10
-4.79999
 20
-6.75
 30
0.0
 10
-4.79999
 20
-6.75
 30
0.0
 10
-4.79999
 20
-6.75
 30
0.0
 10
-4.79999
 20
-6.75
 30
0.0
 10
-4.2
 20
-6.75
 30
0.0
 10
-4.2
 20
-6.75
 30
0.0
 10
-4.2
 20
-6.75
 30
0.0
 10
-4.2
 20
-6.75
 30
0.0
 10
-4.2
 20
-5.84999
 30
0.0
 10
-4.2
 20
-5.84999
 30
0.0
 10
-4.2
 20
-5.84999
 30
0.0
 10
-4.2
 20
-5.84999
 30
0.0
 10
-3.69999
 20
-5.95
 30
0.0
 10
-3.69999
 20
-5.95
 30
0.0
  0
SPLINE
  5
89
330
1F
100
AcDbEntity
  8
Layer 1
 62
   230
100
AcDbSpline
210
0.0
220
0.0
230
1.0
 70
    11
 71
     3
 72
    56
 73
    52
 74
     0
 42
0.0000000001
 43
0.0000000001
 40
0.0
 40
0.0
 40
0.0
 40
0.0
 40
0.0714285714285714
 40
0.0714285714285714
 40
0.0714285714285714
 40
0.0714285714285714
 40
0.1428571428571428
 40
0.1428571428571428
 40
0.1428571428571428
 40
0.1428571428571428
 40
0.2142857142857143
 40
0.2142857142857143
 40
0.2142857142857143
 40
0.2142857142857143
 40
0.2857142857142857
 40
0.2857142857142857
 40
0.2857142857142857
 40
0.2857142857142857
 40
0.3571428571428572
 40
0.3571428571428572
 40
0.3571428571428572
 40
0.3571428571428572
 40
0.4285714285714285
 40
0.4285714285714285
 40
0.4285714285714285
 40
0.4285714285714285
 40
0.5
 40
0.5
 40
0.5
 40
0.5
 40
0.5714285714285714
 40
0.5714285714285714
 40
0.5714285714285714
 40
0.5714285714285714
 40
0.6428571428571429
 40
0.6428571428571429
 40
0.6428571428571429
 40
0.6428571428571429
 40
0.7142857142857143
 40
0.7142857142857143
 40
0.7142857142857143
 40
0.7142857142857143
 40
0.7857142857142857
 40
0.7857142857142857
 40
0.7857142857142857
 40
0.7857142857142857
 40
0.8571428571428571
 40
0.8571428571428571
 40
0.8571428571428571
 40
0.8571428571428571
 40
1.0
 40
1.0
 40
1.0
 40
1.0
 10
-7.69253
 20
-8.49262
 30
0.0
 10
-7.69253
 20
-8.49262
 30
0.0
 10
-7.69253
 20
-8.19996
 30
0.0
 10
-7.69253
 20
-8.19996
 30
0.0
 10
-7.69253
 20
-8.19996
 30
0.0
 10
-7.69253
 20
-8.19996
 30
0.0
 10
-7.64794
 20
-8.19996
 30
0.0
 10
-7.64794
 20
-8.19996
 30
0.0
 10
-7.64794
 20
-8.19996
 30
0.0
 10
-7.64794
 20
-8.19996
 30
0.0
 10
-7.64794
 20
-8.24427
 30
0.0
 10
-7.64794
 20
-8.24427
 30
0.0
 10
-7.64794
 20
-8.24427
 30
0.0
 10
-7.63656
 20
-8.22357
 30
0.0
 10
-7.62602
 20
-8.20984
 30
0.0
 10
-7.61633
 20
-8.20325
 30
0.0
 10
-7.61633
 20
-8.20325
 30
0.0
 10
-7.60674
 20
-8.19667
 30
0.0
 10
-7.59611
 20
-8.19328
 30
0.0
 10
-7.58454
 20
-8.19328
 30
0.0
 10
-7.58454
 20
-8.19328
 30
0.0
 10
-7.56779
 20
-8.19328
 30
0.0
 10
-7.55086
 20
-8.19864
 30
0.0
 10
-7.53355
 20
-8.20927
 30
0.0
 10
-7.53355
 20
-8.20927
 30
0.0
 10
-7.53355
 20
-8.20927
 30
0.0
 10
-7.55067
 20
-8.25537
 30
0.0
 10
-7.55067
 20
-8.25537
 30
0.0
 10
-7.55067
 20
-8.25537
 30
0.0
 10
-7.56271
 20
-8.24812
 30
0.0
 10
-7.57485
 20
-8.24455
 30
0.0
 10
-7.58698
 20
-8.24455
 30
0.0
 10
-7.58698
 20
-8.24455
 30
0.0
 10
-7.59789
 20
-8.24455
 30
0.0
 10
-7.60758
 20
-8.24784
 30
0.0
 10
-7.61624
 20
-8.25433
 30
0.0
 10
-7.61624
 20
-8.25433
 30
0.0
 10
-7.62489
 20
-8.26092
 30
0.0
 10
-7.63101
 20
-8.26995
 30
0.0
 10
-7.63468
 20
-8.28152
 30
0.0
 10
-7.63468
 20
-8.28152
 30
0.0
 10
-7.64023
 20
-8.29911
 30
0.0
 10
-7.64295
 20
-8.3184
 30
0.0
 10
-7.64295
 20
-8.33937
 30
0.0
 10
-7.64295
 20
-8.33937
 30
0.0
 10
-7.64295
 20
-8.33937
 30
0.0
 10
-7.64295
 20
-8.49262
 30
0.0
 10
-7.64295
 20
-8.49262
 30
0.0
 10
-7.64295
 20
-8.49262
 30
0.0
 10
-7.64295
 20
-8.49262
 30
0.0
 10
-7.69253
 20
-8.49262
 30
0.0
 10
-7.69253
 20
-8.49262
 30
0.0
  0
SPLINE
  5
8A
330
1F
100
AcDbEntity
  8
Layer 1
 62
   230
100
AcDbSpline
210
0.0
220
0.0
230
1.0
 70
    11
 71
     3
 72
    40
 73
    36
 74
     0
 42
0.0000000001
 43
0.0000000001
 40
0.0
 40
0.0
 40
0.0
 40
0.0
 40
0.1
 40
0.1
 40
0.1
 40
0.1
 40
0.2
 40
0.2
 40
0.2
 40
0.2
 40
0.3
 40
0.3
 40
0.3
 40
0.3
 40
0.4
 40
0.4
 40
0.4
 40
0.4
 40
0.5
 40
0.5
 40
0.5
 40
0.5
 40
0.6
 40
0.6
 40
0.6
 40
0.6
 40
0.7
 40
0.7
 40
0.7
 40
0.7
 40
0.8
 40
0.8
 40
0.8
 40
0.8
 40
1.0
 40
1.0
 40
1.0
 40
1.0
 10
-7.42845
 20
-8.34624
 30
0.0
 10
-7.42845
 20
-8.29206
 30
0.0
 10
-7.4134
 20
-8.25189
 30
0.0
 10
-7.3832
 20
-8.22583
 30
0.0
 10
-7.3832
 20
-8.22583
 30
0.0
 10
-7.35808
 20
-8.20419
 30
0.0
 10
-7.32741
 20
-8.19328
 30
0.0
 10
-7.2912
 20
-8.19328
 30
0.0
 10
-7.2912
 20
-8.19328
 30
0.0
 10
-7.25093
 20
-8.19328
 30
0.0
 10
-7.21801
 20
-8.20645
 30
0.0
 10
-7.19251
 20
-8.23288
 30
0.0
 10
-7.19251
 20
-8.23288
 30
0.0
 10
-7.16693
 20
-8.25922
 30
0.0
 10
-7.15423
 20
-8.29563
 30
0.0
 10
-7.15423
 20
-8.3421
 30
0.0
 10
-7.15423
 20
-8.3421
 30
0.0
 10
-7.15423
 20
-8.37983
 30
0.0
 10
-7.15987
 20
-8.40946
 30
0.0
 10
-7.17116
 20
-8.431
 30
0.0
 10
-7.17116
 20
-8.431
 30
0.0
 10
-7.18245
 20
-8.45264
 30
0.0
 10
-7.19891
 20
-8.46938
 30
0.0
 10
-7.22045
 20
-8.48133
 30
0.0
 10
-7.22045
 20
-8.48133
 30
0.0
 10
-7.24209
 20
-8.49328
 30
0.0
 10
-7.26561
 20
-8.49921
 30
0.0
 10
-7.2912
 20
-8.49921
 30
0.0
 10
-7.2912
 20
-8.49921
 30
0.0
 10
-7.33212
 20
-8.49921
 30
0.0
 10
-7.36523
 20
-8.48613
 30
0.0
 10
-7.39054
 20
-8.45979
 30
0.0
 10
-7.39054
 20
-8.45979
 30
0.0
 10
-7.41584
 20
-8.43354
 30
0.0
 10
-7.42845
 20
-8.39572
 30
0.0
 10
-7.42845
 20
-8.34624
 30
0.0
  0
SPLINE
  5
8B
330
1F
100
AcDbEntity
  8
Layer 1
 62
   230
100
AcDbSpline
210
0.0
220
0.0
230
1.0
 70
    11
 71
     3
 72
    36
 73
    32
 74
     0
 42
0.0000000001
 43
0.0000000001
 40
0.0
 40
0.0
 40
0.0
 40
0.0
 40
0.1111111111111111
 40
0.1111111111111111
 40
0.1111111111111111
 40
0.1111111111111111
 40
0.2222222222222222
 40
0.2222222222222222
 40
0.2222222222222222
 40
0.2222222222222222
 40
0.3333333333333333
 40
0.3333333333333333
 40
0.3333333333333333
 40
0.3333333333333333
 40
0.4444444444444444
 40
0.4444444444444444
 40
0.4444444444444444
 40
0.4444444444444444
 40
0.5555555555555556
 40
0.5555555555555556
 40
0.5555555555555556
 40
0.5555555555555556
 40
0.6666666666666666
 40
0.6666666666666666
 40
0.6666666666666666
 40
0.6666666666666666
 40
0.7777777777777778
 40
0.7777777777777778
 40
0.7777777777777778
 40
0.7777777777777778
 40
1.0
 40
1.0
 40
1.0
 40
1.0
 10
-7.37746
 20
-8.34624
 30
0.0
 10
-7.37746
 20
-8.38378
 30
0.0
 10
-7.36928
 20
-8.41181
 30
0.0
 10
-7.35291
 20
-8.43044
 30
0.0
 10
-7.35291
 20
-8.43044
 30
0.0
 10
-7.33654
 20
-8.44916
 30
0.0
 10
-7.31594
 20
-8.45847
 30
0.0
 10
-7.2912
 20
-8.45847
 30
0.0
 10
-7.2912
 20
-8.45847
 30
0.0
 10
-7.26655
 20
-8.45847
 30
0.0
 10
-7.24604
 20
-8.44906
 30
0.0
 10
-7.22967
 20
-8.43034
 30
0.0
 10
-7.22967
 20
-8.43034
 30
0.0
 10
-7.2134
 20
-8.41162
 30
0.0
 10
-7.20521
 20
-8.38302
 30
0.0
 10
-7.20521
 20
-8.34464
 30
0.0
 10
-7.20521
 20
-8.34464
 30
0.0
 10
-7.20521
 20
-8.30842
 30
0.0
 10
-7.2134
 20
-8.28095
 30
0.0
 10
-7.22986
 20
-8.26233
 30
0.0
 10
-7.22986
 20
-8.26233
 30
0.0
 10
-7.24632
 20
-8.2437
 30
0.0
 10
-7.26674
 20
-8.23439
 30
0.0
 10
-7.2912
 20
-8.23439
 30
0.0
 10
-7.2912
 20
-8.23439
 30
0.0
 10
-7.31594
 20
-8.23439
 30
0.0
 10
-7.33654
 20
-8.2437
 30
0.0
 10
-7.35291
 20
-8.26223
 30
0.0
 10
-7.35291
 20
-8.26223
 30
0.0
 10
-7.36928
 20
-8.28077
 30
0.0
 10
-7.37746
 20
-8.3088
 30
0.0
 10
-7.37746
 20
-8.34624
 30
0.0
  0
SPLINE
  5
8C
330
1F
100
AcDbEntity
  8
Layer 1
 62
   230
100
AcDbSpline
210
0.0
220
0.0
230
1.0
 70
    11
 71
     3
 72
    56
 73
    52
 74
     0
 42
0.0000000001
 43
0.0000000001
 40
0.0
 40
0.0
 40
0.0
 40
0.0
 40
0.0714285714285714
 40
0.0714285714285714
 40
0.0714285714285714
 40
0.0714285714285714
 40
0.1428571428571428
 40
0.1428571428571428
 40
0.1428571428571428
 40
0.1428571428571428
 40
0.2142857142857143
 40
0.2142857142857143
 40
0.2142857142857143
 40
0.2142857142857143
 40
0.2857142857142857
 40
0.2857142857142857
 40
0.2857142857142857
 40
0.2857142857142857
 40
0.3571428571428572
 40
0.3571428571428572
 40
0.3571428571428572
 40
0.3571428571428572
 40
0.4285714285714285
 40
0.4285714285714285
 40
0.4285714285714285
 40
0.4285714285714285
 40
0.5
 40
0.5
 40
0.5
 40
0.5
 40
0.5714285714285714
 40
0.5714285714285714
 40
0.5714285714285714
 40
0.5714285714285714
 40
0.6428571428571429
 40
0.6428571428571429
 40
0.6428571428571429
 40
0.6428571428571429
 40
0.7142857142857143
 40
0.7142857142857143
 40
0.7142857142857143
 40
0.7142857142857143
 40
0.7857142857142857
 40
0.7857142857142857
 40
0.7857142857142857
 40
0.7857142857142857
 40
0.8571428571428571
 40
0.8571428571428571
 40
0.8571428571428571
 40
0.8571428571428571
 40
1.0
 40
1.0
 40
1.0
 40
1.0
 10
-6.95619
 20
-8.49262
 30
0.0
 10
-6.95619
 20
-8.49262
 30
0.0
 10
-7.00219
 20
-8.49262
 30
0.0
 10
-7.00219
 20
-8.49262
 30
0.0
 10
-7.00219
 20
-8.49262
 30
0.0
 10
-7.00219
 20
-8.49262
 30
0.0
 10
-7.00219
 20
-8.08858
 30
0.0
 10
-7.00219
 20
-8.08858
 30
0.0
 10
-7.00219
 20
-8.08858
 30
0.0
 10
-7.00219
 20
-8.08858
 30
0.0
 10
-6.95261
 20
-8.08858
 30
0.0
 10
-6.95261
 20
-8.08858
 30
0.0
 10
-6.95261
 20
-8.08858
 30
0.0
 10
-6.95261
 20
-8.08858
 30
0.0
 10
-6.95261
 20
-8.2327
 30
0.0
 10
-6.95261
 20
-8.2327
 30
0.0
 10
-6.95261
 20
-8.2327
 30
0.0
 10
-6.93163
 20
-8.20645
 30
0.0
 10
-6.90492
 20
-8.19328
 30
0.0
 10
-6.87246
 20
-8.19328
 30
0.0
 10
-6.87246
 20
-8.19328
 30
0.0
 10
-6.8544
 20
-8.19328
 30
0.0
 10
-6.83737
 20
-8.19695
 30
0.0
 10
-6.82129
 20
-8.20419
 30
0.0
 10
-6.82129
 20
-8.20419
 30
0.0
 10
-6.8052
 20
-8.21143
 30
0.0
 10
-6.79203
 20
-8.22169
 30
0.0
 10
-6.78159
 20
-8.23476
 30
0.0
 10
-6.78159
 20
-8.23476
 30
0.0
 10
-6.77124
 20
-8.24794
 30
0.0
 10
-6.76305
 20
-8.26374
 30
0.0
 10
-6.75722
 20
-8.28237
 30
0.0
 10
-6.75722
 20
-8.28237
 30
0.0
 10
-6.7513
 20
-8.3009
 30
0.0
 10
-6.74838
 20
-8.32075
 30
0.0
 10
-6.74838
 20
-8.34182
 30
0.0
 10
-6.74838
 20
-8.34182
 30
0.0
 10
-6.74838
 20
-8.39206
 30
0.0
 10
-6.7608
 20
-8.43081
 30
0.0
 10
-6.78563
 20
-8.45819
 30
0.0
 10
-6.78563
 20
-8.45819
 30
0.0
 10
-6.81037
 20
-8.48556
 30
0.0
 10
-6.84019
 20
-8.49921
 30
0.0
 10
-6.87491
 20
-8.49921
 30
0.0
 10
-6.87491
 20
-8.49921
 30
0.0
 10
-6.90943
 20
-8.49921
 30
0.0
 10
-6.93653
 20
-8.48481
 30
0.0
 10
-6.95619
 20
-8.45593
 30
0.0
 10
-6.95619
 20
-8.45593
 30
0.0
 10
-6.95619
 20
-8.45593
 30
0.0
 10
-6.95619
 20
-8.49262
 30
0.0
 10
-6.95619
 20
-8.49262
 30
0.0
  0
SPLINE
  5
8D
330
1F
100
AcDbEntity
  8
Layer 1
 62
   230
100
AcDbSpline
210
0.0
220
0.0
230
1.0
 70
    11
 71
     3
 72
    36
 73
    32
 74
     0
 42
0.0000000001
 43
0.0000000001
 40
0.0
 40
0.0
 40
0.0
 40
0.0
 40
0.1111111111111111
 40
0.1111111111111111
 40
0.1111111111111111
 40
0.1111111111111111
 40
0.2222222222222222
 40
0.2222222222222222
 40
0.2222222222222222
 40
0.2222222222222222
 40
0.3333333333333333
 40
0.3333333333333333
 40
0.3333333333333333
 40
0.3333333333333333
 40
0.4444444444444444
 40
0.4444444444444444
 40
0.4444444444444444
 40
0.4444444444444444
 40
0.5555555555555556
 40
0.5555555555555556
 40
0.5555555555555556
 40
0.5555555555555556
 40
0.6666666666666666
 40
0.6666666666666666
 40
0.6666666666666666
 40
0.6666666666666666
 40
0.7777777777777778
 40
0.7777777777777778
 40
0.7777777777777778
 40
0.7777777777777778
 40
1.0
 40
1.0
 40
1.0
 40
1.0
 10
-6.95675
 20
-8.34408
 30
0.0
 10
-6.95675
 20
-8.37917
 30
0.0
 10
-6.95195
 20
-8.40447
 30
0.0
 10
-6.94245
 20
-8.42009
 30
0.0
 10
-6.94245
 20
-8.42009
 30
0.0
 10
-6.92684
 20
-8.44568
 30
0.0
 10
-6.90567
 20
-8.45847
 30
0.0
 10
-6.87905
 20
-8.45847
 30
0.0
 10
-6.87905
 20
-8.45847
 30
0.0
 10
-6.85732
 20
-8.45847
 30
0.0
 10
-6.8386
 20
-8.44906
 30
0.0
 10
-6.82279
 20
-8.43016
 30
0.0
 10
-6.82279
 20
-8.43016
 30
0.0
 10
-6.80699
 20
-8.41134
 30
0.0
 10
-6.79908
 20
-8.38331
 30
0.0
 10
-6.79908
 20
-8.34596
 30
0.0
 10
-6.79908
 20
-8.34596
 30
0.0
 10
-6.79908
 20
-8.30777
 30
0.0
 10
-6.8067
 20
-8.27954
 30
0.0
 10
-6.82185
 20
-8.26139
 30
0.0
 10
-6.82185
 20
-8.26139
 30
0.0
 10
-6.837
 20
-8.24323
 30
0.0
 10
-6.85534
 20
-8.23411
 30
0.0
 10
-6.87679
 20
-8.23411
 30
0.0
 10
-6.87679
 20
-8.23411
 30
0.0
 10
-6.89852
 20
-8.23411
 30
0.0
 10
-6.91724
 20
-8.24351
 30
0.0
 10
-6.93305
 20
-8.26233
 30
0.0
 10
-6.93305
 20
-8.26233
 30
0.0
 10
-6.94885
 20
-8.28114
 30
0.0
 10
-6.95675
 20
-8.30842
 30
0.0
 10
-6.95675
 20
-8.34408
 30
0.0
  0
SPLINE
  5
8E
330
1F
100
AcDbEntity
  8
Layer 1
 62
   230
100
AcDbSpline
210
0.0
220
0.0
230
1.0
 70
    11
 71
     3
 72
    40
 73
    36
 74
     0
 42
0.0000000001
 43
0.0000000001
 40
0.0
 40
0.0
 40
0.0
 40
0.0
 40
0.1
 40
0.1
 40
0.1
 40
0.1
 40
0.2
 40
0.2
 40
0.2
 40
0.2
 40
0.3
 40
0.3
 40
0.3
 40
0.3
 40
0.4
 40
0.4
 40
0.4
 40
0.4
 40
0.5
 40
0.5
 40
0.5
 40
0.5
 40
0.6
 40
0.6
 40
0.6
 40
0.6
 40
0.7
 40
0.7
 40
0.7
 40
0.7
 40
0.8
 40
0.8
 40
0.8
 40
0.8
 40
1.0
 40
1.0
 40
1.0
 40
1.0
 10
-6.61243
 20
-8.34624
 30
0.0
 10
-6.61243
 20
-8.29206
 30
0.0
 10
-6.59738
 20
-8.25189
 30
0.0
 10
-6.56718
 20
-8.22583
 30
0.0
 10
-6.56718
 20
-8.22583
 30
0.0
 10
-6.54206
 20
-8.20419
 30
0.0
 10
-6.51139
 20
-8.19328
 30
0.0
 10
-6.47518
 20
-8.19328
 30
0.0
 10
-6.47518
 20
-8.19328
 30
0.0
 10
-6.43491
 20
-8.19328
 30
0.0
 10
-6.40199
 20
-8.20645
 30
0.0
 10
-6.37649
 20
-8.23288
 30
0.0
 10
-6.37649
 20
-8.23288
 30
0.0
 10
-6.35091
 20
-8.25922
 30
0.0
 10
-6.33821
 20
-8.29563
 30
0.0
 10
-6.33821
 20
-8.3421
 30
0.0
 10
-6.33821
 20
-8.3421
 30
0.0
 10
-6.33821
 20
-8.37983
 30
0.0
 10
-6.34385
 20
-8.40946
 30
0.0
 10
-6.35514
 20
-8.431
 30
0.0
 10
-6.35514
 20
-8.431
 30
0.0
 10
-6.36643
 20
-8.45264
 30
0.0
 10
-6.38289
 20
-8.46938
 30
0.0
 10
-6.40443
 20
-8.48133
 30
0.0
 10
-6.40443
 20
-8.48133
 30
0.0
 10
-6.42607
 20
-8.49328
 30
0.0
 10
-6.44959
 20
-8.49921
 30
0.0
 10
-6.47518
 20
-8.49921
 30
0.0
 10
-6.47518
 20
-8.49921
 30
0.0
 10
-6.5161
 20
-8.49921
 30
0.0
 10
-6.54921
 20
-8.48613
 30
0.0
 10
-6.57452
 20
-8.45979
 30
0.0
 10
-6.57452
 20
-8.45979
 30
0.0
 10
-6.59982
 20
-8.43354
 30
0.0
 10
-6.61243
 20
-8.39572
 30
0.0
 10
-6.61243
 20
-8.34624
 30
0.0
  0
SPLINE
  5
8F
330
1F
100
AcDbEntity
  8
Layer 1
 62
   230
100
AcDbSpline
210
0.0
220
0.0
230
1.0
 70
    11
 71
     3
 72
    36
 73
    32
 74
     0
 42
0.0000000001
 43
0.0000000001
 40
0.0
 40
0.0
 40
0.0
 40
0.0
 40
0.1111111111111111
 40
0.1111111111111111
 40
0.1111111111111111
 40
0.1111111111111111
 40
0.2222222222222222
 40
0.2222222222222222
 40
0.2222222222222222
 40
0.2222222222222222
 40
0.3333333333333333
 40
0.3333333333333333
 40
0.3333333333333333
 40
0.3333333333333333
 40
0.4444444444444444
 40
0.4444444444444444
 40
0.4444444444444444
 40
0.4444444444444444
 40
0.5555555555555556
 40
0.5555555555555556
 40
0.5555555555555556
 40
0.5555555555555556
 40
0.6666666666666666
 40
0.6666666666666666
 40
0.6666666666666666
 40
0.6666666666666666
 40
0.7777777777777778
 40
0.7777777777777778
 40
0.7777777777777778
 40
0.7777777777777778
 40
1.0
 40
1.0
 40
1.0
 40
1.0
 10
-6.56144
 20
-8.34624
 30
0.0
 10
-6.56144
 20
-8.38378
 30
0.0
 10
-6.55326
 20
-8.41181
 30
0.0
 10
-6.53689
 20
-8.43044
 30
0.0
 10
-6.53689
 20
-8.43044
 30
0.0
 10
-6.52052
 20
-8.44916
 30
0.0
 10
-6.49992
 20
-8.45847
 30
0.0
 10
-6.47518
 20
-8.45847
 30
0.0
 10
-6.47518
 20
-8.45847
 30
0.0
 10
-6.45053
 20
-8.45847
 30
0.0
 10
-6.43002
 20
-8.44906
 30
0.0
 10
-6.41365
 20
-8.43034
 30
0.0
 10
-6.41365
 20
-8.43034
 30
0.0
 10
-6.39738
 20
-8.41162
 30
0.0
 10
-6.38919
 20
-8.38302
 30
0.0
 10
-6.38919
 20
-8.34464
 30
0.0
 10
-6.38919
 20
-8.34464
 30
0.0
 10
-6.38919
 20
-8.30842
 30
0.0
 10
-6.39738
 20
-8.28095
 30
0.0
 10
-6.41384
 20
-8.26233
 30
0.0
 10
-6.41384
 20
-8.26233
 30
0.0
 10
-6.4303
 20
-8.2437
 30
0.0
 10
-6.45072
 20
-8.23439
 30
0.0
 10
-6.47518
 20
-8.23439
 30
0.0
 10
-6.47518
 20
-8.23439
 30
0.0
 10
-6.49992
 20
-8.23439
 30
0.0
 10
-6.52052
 20
-8.2437
 30
0.0
 10
-6.53689
 20
-8.26223
 30
0.0
 10
-6.53689
 20
-8.26223
 30
0.0
 10
-6.55326
 20
-8.28077
 30
0.0
 10
-6.56144
 20
-8.3088
 30
0.0
 10
-6.56144
 20
-8.34624
 30
0.0
  0
SPLINE
  5
90
330
1F
100
AcDbEntity
  8
Layer 1
 62
   230
100
AcDbSpline
210
0.0
220
0.0
230
1.0
 70
    11
 71
     3
 72
    84
 73
    80
 74
     0
 42
0.0000000001
 43
0.0000000001
 40
0.0
 40
0.0
 40
0.0
 40
0.0
 40
0.0476190476190476
 40
0.0476190476190476
 40
0.0476190476190476
 40
0.0476190476190476
 40
0.0952380952380952
 40
0.0952380952380952
 40
0.0952380952380952
 40
0.0952380952380952
 40
0.1428571428571428
 40
0.1428571428571428
 40
0.1428571428571428
 40
0.1428571428571428
 40
0.1904761904761905
 40
0.1904761904761905
 40
0.1904761904761905
 40
0.1904761904761905
 40
0.2380952380952381
 40
0.2380952380952381
 40
0.2380952380952381
 40
0.2380952380952381
 40
0.2857142857142857
 40
0.2857142857142857
 40
0.2857142857142857
 40
0.2857142857142857
 40
0.3333333333333333
 40
0.3333333333333333
 40
0.3333333333333333
 40
0.3333333333333333
 40
0.3809523809523809
 40
0.3809523809523809
 40
0.3809523809523809
 40
0.3809523809523809
 40
0.4285714285714285
 40
0.4285714285714285
 40
0.4285714285714285
 40
0.4285714285714285
 40
0.4761904761904762
 40
0.4761904761904762
 40
0.4761904761904762
 40
0.4761904761904762
 40
0.5238095238095238
 40
0.5238095238095238
 40
0.5238095238095238
 40
0.5238095238095238
 40
0.5714285714285714
 40
0.5714285714285714
 40
0.5714285714285714
 40
0.5714285714285714
 40
0.6190476190476191
 40
0.6190476190476191
 40
0.6190476190476191
 40
0.6190476190476191
 40
0.6666666666666666
 40
0.6666666666666666
 40
0.6666666666666666
 40
0.6666666666666666
 40
0.7142857142857143
 40
0.7142857142857143
 40
0.7142857142857143
 40
0.7142857142857143
 40
0.7619047619047619
 40
0.7619047619047619
 40
0.7619047619047619
 40
0.7619047619047619
 40
0.8095238095238095
 40
0.8095238095238095
 40
0.8095238095238095
 40
0.8095238095238095
 40
0.8571428571428571
 40
0.8571428571428571
 40
0.8571428571428571
 40
0.8571428571428571
 40
0.9047619047619048
 40
0.9047619047619048
 40
0.9047619047619048
 40
0.9047619047619048
 40
1.0
 40
1.0
 40
1.0
 40
1.0
 10
-6.07761
 20
-8.44822
 30
0.0
 10
-6.07761
 20
-8.44822
 30
0.0
 10
-6.07046
 20
-8.49206
 30
0.0
 10
-6.07046
 20
-8.49206
 30
0.0
 10
-6.07046
 20
-8.49206
 30
0.0
 10
-6.08438
 20
-8.49497
 30
0.0
 10
-6.09689
 20
-8.49648
 30
0.0
 10
-6.1079
 20
-8.49648
 30
0.0
 10
-6.1079
 20
-8.49648
 30
0.0
 10
-6.12596
 20
-8.49648
 30
0.0
 10
-6.13989
 20
-8.49365
 30
0.0
 10
-6.14986
 20
-8.48792
 30
0.0
 10
-6.14986
 20
-8.48792
 30
0.0
 10
-6.15973
 20
-8.48227
 30
0.0
 10
-6.1667
 20
-8.47475
 30
0.0
 10
-6.17074
 20
-8.46543
 30
0.0
 10
-6.17074
 20
-8.46543
 30
0.0
 10
-6.17479
 20
-8.45621
 30
0.0
 10
-6.17686
 20
-8.43665
 30
0.0
 10
-6.17686
 20
-8.40692
 30
0.0
 10
-6.17686
 20
-8.40692
 30
0.0
 10
-6.17686
 20
-8.40692
 30
0.0
 10
-6.17686
 20
-8.23853
 30
0.0
 10
-6.17686
 20
-8.23853
 30
0.0
 10
-6.17686
 20
-8.23853
 30
0.0
 10
-6.17686
 20
-8.23853
 30
0.0
 10
-6.21326
 20
-8.23853
 30
0.0
 10
-6.21326
 20
-8.23853
 30
0.0
 10
-6.21326
 20
-8.23853
 30
0.0
 10
-6.21326
 20
-8.23853
 30
0.0
 10
-6.21326
 20
-8.19996
 30
0.0
 10
-6.21326
 20
-8.19996
 30
0.0
 10
-6.21326
 20
-8.19996
 30
0.0
 10
-6.21326
 20
-8.19996
 30
0.0
 10
-6.17686
 20
-8.19996
 30
0.0
 10
-6.17686
 20
-8.19996
 30
0.0
 10
-6.17686
 20
-8.19996
 30
0.0
 10
-6.17686
 20
-8.19996
 30
0.0
 10
-6.17686
 20
-8.12743
 30
0.0
 10
-6.17686
 20
-8.12743
 30
0.0
 10
-6.17686
 20
-8.12743
 30
0.0
 10
-6.17686
 20
-8.12743
 30
0.0
 10
-6.12747
 20
-8.0977
 30
0.0
 10
-6.12747
 20
-8.0977
 30
0.0
 10
-6.12747
 20
-8.0977
 30
0.0
 10
-6.12747
 20
-8.0977
 30
0.0
 10
-6.12747
 20
-8.19996
 30
0.0
 10
-6.12747
 20
-8.19996
 30
0.0
 10
-6.12747
 20
-8.19996
 30
0.0
 10
-6.12747
 20
-8.19996
 30
0.0
 10
-6.07761
 20
-8.19996
 30
0.0
 10
-6.07761
 20
-8.19996
 30
0.0
 10
-6.07761
 20
-8.19996
 30
0.0
 10
-6.07761
 20
-8.19996
 30
0.0
 10
-6.07761
 20
-8.23853
 30
0.0
 10
-6.07761
 20
-8.23853
 30
0.0
 10
-6.07761
 20
-8.23853
 30
0.0
 10
-6.07761
 20
-8.23853
 30
0.0
 10
-6.12747
 20
-8.23853
 30
0.0
 10
-6.12747
 20
-8.23853
 30
0.0
 10
-6.12747
 20
-8.23853
 30
0.0
 10
-6.12747
 20
-8.23853
 30
0.0
 10
-6.12747
 20
-8.40965
 30
0.0
 10
-6.12747
 20
-8.40965
 30
0.0
 10
-6.12747
 20
-8.40965
 30
0.0
 10
-6.12747
 20
-8.42385
 30
0.0
 10
-6.12662
 20
-8.43288
 30
0.0
 10
-6.12493
 20
-8.43693
 30
0.0
 10
-6.12493
 20
-8.43693
 30
0.0
 10
-6.12314
 20
-8.44097
 30
0.0
 10
-6.12032
 20
-8.44417
 30
0.0
 10
-6.11637
 20
-8.44662
 30
0.0
 10
-6.11637
 20
-8.44662
 30
0.0
 10
-6.11242
 20
-8.44897
 30
0.0
 10
-6.10677
 20
-8.45019
 30
0.0
 10
-6.09943
 20
-8.45019
 30
0.0
 10
-6.09943
 20
-8.45019
 30
0.0
 10
-6.09388
 20
-8.45019
 30
0.0
 10
-6.08664
 20
-8.44953
 30
0.0
 10
-6.07761
 20
-8.44822
 30
0.0
  0
SPLINE
  5
91
330
1F
100
AcDbEntity
  8
Layer 1
 62
   230
100
AcDbSpline
210
0.0
220
0.0
230
1.0
 70
    11
 71
     3
 72
    84
 73
    80
 74
     0
 42
0.0000000001
 43
0.0000000001
 40
0.0
 40
0.0
 40
0.0
 40
0.0
 40
0.0476190476190476
 40
0.0476190476190476
 40
0.0476190476190476
 40
0.0476190476190476
 40
0.0952380952380952
 40
0.0952380952380952
 40
0.0952380952380952
 40
0.0952380952380952
 40
0.1428571428571428
 40
0.1428571428571428
 40
0.1428571428571428
 40
0.1428571428571428
 40
0.1904761904761905
 40
0.1904761904761905
 40
0.1904761904761905
 40
0.1904761904761905
 40
0.2380952380952381
 40
0.2380952380952381
 40
0.2380952380952381
 40
0.2380952380952381
 40
0.2857142857142857
 40
0.2857142857142857
 40
0.2857142857142857
 40
0.2857142857142857
 40
0.3333333333333333
 40
0.3333333333333333
 40
0.3333333333333333
 40
0.3333333333333333
 40
0.3809523809523809
 40
0.3809523809523809
 40
0.3809523809523809
 40
0.3809523809523809
 40
0.4285714285714285
 40
0.4285714285714285
 40
0.4285714285714285
 40
0.4285714285714285
 40
0.4761904761904762
 40
0.4761904761904762
 40
0.4761904761904762
 40
0.4761904761904762
 40
0.5238095238095238
 40
0.5238095238095238
 40
0.5238095238095238
 40
0.5238095238095238
 40
0.5714285714285714
 40
0.5714285714285714
 40
0.5714285714285714
 40
0.5714285714285714
 40
0.6190476190476191
 40
0.6190476190476191
 40
0.6190476190476191
 40
0.6190476190476191
 40
0.6666666666666666
 40
0.6666666666666666
 40
0.6666666666666666
 40
0.6666666666666666
 40
0.7142857142857143
 40
0.7142857142857143
 40
0.7142857142857143
 40
0.7142857142857143
 40
0.7619047619047619
 40
0.7619047619047619
 40
0.7619047619047619
 40
0.7619047619047619
 40
0.8095238095238095
 40
0.8095238095238095
 40
0.8095238095238095
 40
0.8095238095238095
 40
0.8571428571428571
 40
0.8571428571428571
 40
0.8571428571428571
 40
0.8571428571428571
 40
0.9047619047619048
 40
0.9047619047619048
 40
0.9047619047619048
 40
0.9047619047619048
 40
1.0
 40
1.0
 40
1.0
 40
1.0
 10
-5.32488
 20
-8.44822
 30
0.0
 10
-5.32488
 20
-8.44822
 30
0.0
 10
-5.31773
 20
-8.49206
 30
0.0
 10
-5.31773
 20
-8.49206
 30
0.0
 10
-5.31773
 20
-8.49206
 30
0.0
 10
-5.33165
 20
-8.49497
 30
0.0
 10
-5.34416
 20
-8.49648
 30
0.0
 10
-5.35517
 20
-8.49648
 30
0.0
 10
-5.35517
 20
-8.49648
 30
0.0
 10
-5.37323
 20
-8.49648
 30
0.0
 10
-5.38716
 20
-8.49365
 30
0.0
 10
-5.39713
 20
-8.48792
 30
0.0
 10
-5.39713
 20
-8.48792
 30
0.0
 10
-5.407
 20
-8.48227
 30
0.0
 10
-5.41397
 20
-8.47475
 30
0.0
 10
-5.41801
 20
-8.46543
 30
0.0
 10
-5.41801
 20
-8.46543
 30
0.0
 10
-5.42206
 20
-8.45621
 30
0.0
 10
-5.42413
 20
-8.43665
 30
0.0
 10
-5.42413
 20
-8.40692
 30
0.0
 10
-5.42413
 20
-8.40692
 30
0.0
 10
-5.42413
 20
-8.40692
 30
0.0
 10
-5.42413
 20
-8.23853
 30
0.0
 10
-5.42413
 20
-8.23853
 30
0.0
 10
-5.42413
 20
-8.23853
 30
0.0
 10
-5.42413
 20
-8.23853
 30
0.0
 10
-5.46053
 20
-8.23853
 30
0.0
 10
-5.46053
 20
-8.23853
 30
0.0
 10
-5.46053
 20
-8.23853
 30
0.0
 10
-5.46053
 20
-8.23853
 30
0.0
 10
-5.46053
 20
-8.19996
 30
0.0
 10
-5.46053
 20
-8.19996
 30
0.0
 10
-5.46053
 20
-8.19996
 30
0.0
 10
-5.46053
 20
-8.19996
 30
0.0
 10
-5.42413
 20
-8.19996
 30
0.0
 10
-5.42413
 20
-8.19996
 30
0.0
 10
-5.42413
 20
-8.19996
 30
0.0
 10
-5.42413
 20
-8.19996
 30
0.0
 10
-5.42413
 20
-8.12743
 30
0.0
 10
-5.42413
 20
-8.12743
 30
0.0
 10
-5.42413
 20
-8.12743
 30
0.0
 10
-5.42413
 20
-8.12743
 30
0.0
 10
-5.37474
 20
-8.0977
 30
0.0
 10
-5.37474
 20
-8.0977
 30
0.0
 10
-5.37474
 20
-8.0977
 30
0.0
 10
-5.37474
 20
-8.0977
 30
0.0
 10
-5.37474
 20
-8.19996
 30
0.0
 10
-5.37474
 20
-8.19996
 30
0.0
 10
-5.37474
 20
-8.19996
 30
0.0
 10
-5.37474
 20
-8.19996
 30
0.0
 10
-5.32488
 20
-8.19996
 30
0.0
 10
-5.32488
 20
-8.19996
 30
0.0
 10
-5.32488
 20
-8.19996
 30
0.0
 10
-5.32488
 20
-8.19996
 30
0.0
 10
-5.32488
 20
-8.23853
 30
0.0
 10
-5.32488
 20
-8.23853
 30
0.0
 10
-5.32488
 20
-8.23853
 30
0.0
 10
-5.32488
 20
-8.23853
 30
0.0
 10
-5.37474
 20
-8.23853
 30
0.0
 10
-5.37474
 20
-8.23853
 30
0.0
 10
-5.37474
 20
-8.23853
 30
0.0
 10
-5.37474
 20
-8.23853
 30
0.0
 10
-5.37474
 20
-8.40965
 30
0.0
 10
-5.37474
 20
-8.40965
 30
0.0
 10
-5.37474
 20
-8.40965
 30
0.0
 10
-5.37474
 20
-8.42385
 30
0.0
 10
-5.37389
 20
-8.43288
 30
0.0
 10
-5.3722
 20
-8.43693
 30
0.0
 10
-5.3722
 20
-8.43693
 30
0.0
 10
-5.37041
 20
-8.44097
 30
0.0
 10
-5.36759
 20
-8.44417
 30
0.0
 10
-5.36364
 20
-8.44662
 30
0.0
 10
-5.36364
 20
-8.44662
 30
0.0
 10
-5.35969
 20
-8.44897
 30
0.0
 10
-5.35404
 20
-8.45019
 30
0.0
 10
-5.3467
 20
-8.45019
 30
0.0
 10
-5.3467
 20
-8.45019
 30
0.0
 10
-5.34115
 20
-8.45019
 30
0.0
 10
-5.33391
 20
-8.44953
 30
0.0
 10
-5.32488
 20
-8.44822
 30
0.0
  0
SPLINE
  5
92
330
1F
100
AcDbEntity
  8
Layer 1
 62
   230
100
AcDbSpline
210
0.0
220
0.0
230
1.0
 70
    11
 71
     3
 72
    56
 73
    52
 74
     0
 42
0.0000000001
 43
0.0000000001
 40
0.0
 40
0.0
 40
0.0
 40
0.0
 40
0.0714285714285714
 40
0.0714285714285714
 40
0.0714285714285714
 40
0.0714285714285714
 40
0.1428571428571428
 40
0.1428571428571428
 40
0.1428571428571428
 40
0.1428571428571428
 40
0.2142857142857143
 40
0.2142857142857143
 40
0.2142857142857143
 40
0.2142857142857143
 40
0.2857142857142857
 40
0.2857142857142857
 40
0.2857142857142857
 40
0.2857142857142857
 40
0.3571428571428572
 40
0.3571428571428572
 40
0.3571428571428572
 40
0.3571428571428572
 40
0.4285714285714285
 40
0.4285714285714285
 40
0.4285714285714285
 40
0.4285714285714285
 40
0.5
 40
0.5
 40
0.5
 40
0.5
 40
0.5714285714285714
 40
0.5714285714285714
 40
0.5714285714285714
 40
0.5714285714285714
 40
0.6428571428571429
 40
0.6428571428571429
 40
0.6428571428571429
 40
0.6428571428571429
 40
0.7142857142857143
 40
0.7142857142857143
 40
0.7142857142857143
 40
0.7142857142857143
 40
0.7857142857142857
 40
0.7857142857142857
 40
0.7857142857142857
 40
0.7857142857142857
 40
0.8571428571428571
 40
0.8571428571428571
 40
0.8571428571428571
 40
0.8571428571428571
 40
1.0
 40
1.0
 40
1.0
 40
1.0
 10
-5.18281
 20
-8.49262
 30
0.0
 10
-5.18281
 20
-8.49262
 30
0.0
 10
-5.18281
 20
-8.19996
 30
0.0
 10
-5.18281
 20
-8.19996
 30
0.0
 10
-5.18281
 20
-8.19996
 30
0.0
 10
-5.18281
 20
-8.19996
 30
0.0
 10
-5.13822
 20
-8.19996
 30
0.0
 10
-5.13822
 20
-8.19996
 30
0.0
 10
-5.13822
 20
-8.19996
 30
0.0
 10
-5.13822
 20
-8.19996
 30
0.0
 10
-5.13822
 20
-8.24427
 30
0.0
 10
-5.13822
 20
-8.24427
 30
0.0
 10
-5.13822
 20
-8.24427
 30
0.0
 10
-5.12684
 20
-8.22357
 30
0.0
 10
-5.1163
 20
-8.20984
 30
0.0
 10
-5.10661
 20
-8.20325
 30
0.0
 10
-5.10661
 20
-8.20325
 30
0.0
 10
-5.09702
 20
-8.19667
 30
0.0
 10
-5.08639
 20
-8.19328
 30
0.0
 10
-5.07482
 20
-8.19328
 30
0.0
 10
-5.07482
 20
-8.19328
 30
0.0
 10
-5.05807
 20
-8.19328
 30
0.0
 10
-5.04114
 20
-8.19864
 30
0.0
 10
-5.02383
 20
-8.20927
 30
0.0
 10
-5.02383
 20
-8.20927
 30
0.0
 10
-5.02383
 20
-8.20927
 30
0.0
 10
-5.04095
 20
-8.25537
 30
0.0
 10
-5.04095
 20
-8.25537
 30
0.0
 10
-5.04095
 20
-8.25537
 30
0.0
 10
-5.05299
 20
-8.24812
 30
0.0
 10
-5.06513
 20
-8.24455
 30
0.0
 10
-5.07726
 20
-8.24455
 30
0.0
 10
-5.07726
 20
-8.24455
 30
0.0
 10
-5.08817
 20
-8.24455
 30
0.0
 10
-5.09786
 20
-8.24784
 30
0.0
 10
-5.10652
 20
-8.25433
 30
0.0
 10
-5.10652
 20
-8.25433
 30
0.0
 10
-5.11517
 20
-8.26092
 30
0.0
 10
-5.12129
 20
-8.26995
 30
0.0
 10
-5.12496
 20
-8.28152
 30
0.0
 10
-5.12496
 20
-8.28152
 30
0.0
 10
-5.13051
 20
-8.29911
 30
0.0
 10
-5.13323
 20
-8.3184
 30
0.0
 10
-5.13323
 20
-8.33937
 30
0.0
 10
-5.13323
 20
-8.33937
 30
0.0
 10
-5.13323
 20
-8.33937
 30
0.0
 10
-5.13323
 20
-8.49262
 30
0.0
 10
-5.13323
 20
-8.49262
 30
0.0
 10
-5.13323
 20
-8.49262
 30
0.0
 10
-5.13323
 20
-8.49262
 30
0.0
 10
-5.18281
 20
-8.49262
 30
0.0
 10
-5.18281
 20
-8.49262
 30
0.0
  0
SPLINE
  5
93
330
1F
100
AcDbEntity
  8
Layer 1
 62
   230
100
AcDbSpline
210
0.0
220
0.0
230
1.0
 70
    11
 71
     3
 72
   112
 73
   108
 74
     0
 42
0.0000000001
 43
0.0000000001
 40
0.0
 40
0.0
 40
0.0
 40
0.0
 40
0.0357142857142857
 40
0.0357142857142857
 40
0.0357142857142857
 40
0.0357142857142857
 40
0.0714285714285714
 40
0.0714285714285714
 40
0.0714285714285714
 40
0.0714285714285714
 40
0.1071428571428571
 40
0.1071428571428571
 40
0.1071428571428571
 40
0.1071428571428571
 40
0.1428571428571428
 40
0.1428571428571428
 40
0.1428571428571428
 40
0.1428571428571428
 40
0.1785714285714286
 40
0.1785714285714286
 40
0.1785714285714286
 40
0.1785714285714286
 40
0.2142857142857143
 40
0.2142857142857143
 40
0.2142857142857143
 40
0.2142857142857143
 40
0.25
 40
0.25
 40
0.25
 40
0.25
 40
0.2857142857142857
 40
0.2857142857142857
 40
0.2857142857142857
 40
0.2857142857142857
 40
0.3214285714285715
 40
0.3214285714285715
 40
0.3214285714285715
 40
0.3214285714285715
 40
0.3571428571428572
 40
0.3571428571428572
 40
0.3571428571428572
 40
0.3571428571428572
 40
0.3928571428571428
 40
0.3928571428571428
 40
0.3928571428571428
 40
0.3928571428571428
 40
0.4285714285714285
 40
0.4285714285714285
 40
0.4285714285714285
 40
0.4285714285714285
 40
0.4642857142857143
 40
0.4642857142857143
 40
0.4642857142857143
 40
0.4642857142857143
 40
0.5
 40
0.5
 40
0.5
 40
0.5
 40
0.5357142857142857
 40
0.5357142857142857
 40
0.5357142857142857
 40
0.5357142857142857
 40
0.5714285714285714
 40
0.5714285714285714
 40
0.5714285714285714
 40
0.5714285714285714
 40
0.6071428571428571
 40
0.6071428571428571
 40
0.6071428571428571
 40
0.6071428571428571
 40
0.6428571428571429
 40
0.6428571428571429
 40
0.6428571428571429
 40
0.6428571428571429
 40
0.6785714285714286
 40
0.6785714285714286
 40
0.6785714285714286
 40
0.6785714285714286
 40
0.7142857142857143
 40
0.7142857142857143
 40
0.7142857142857143
 40
0.7142857142857143
 40
0.75
 40
0.75
 40
0.75
 40
0.75
 40
0.7857142857142857
 40
0.7857142857142857
 40
0.7857142857142857
 40
0.7857142857142857
 40
0.8214285714285714
 40
0.8214285714285714
 40
0.8214285714285714
 40
0.8214285714285714
 40
0.8571428571428571
 40
0.8571428571428571
 40
0.8571428571428571
 40
0.8571428571428571
 40
0.8928571428571429
 40
0.8928571428571429
 40
0.8928571428571429
 40
0.8928571428571429
 40
0.9285714285714286
 40
0.9285714285714286
 40
0.9285714285714286
 40
0.9285714285714286
 40
1.0
 40
1.0
 40
1.0
 40
1.0
 10
-4.70923
 20
-8.4565
 30
0.0
 10
-4.72767
 20
-8.47211
 30
0.0
 10
-4.74535
 20
-8.48312
 30
0.0
 10
-4.76229
 20
-8.48961
 30
0.0
 10
-4.76229
 20
-8.48961
 30
0.0
 10
-4.77931
 20
-8.49601
 30
0.0
 10
-4.79756
 20
-8.49921
 30
0.0
 10
-4.81704
 20
-8.49921
 30
0.0
 10
-4.81704
 20
-8.49921
 30
0.0
 10
-4.84921
 20
-8.49921
 30
0.0
 10
-4.87386
 20
-8.4914
 30
0.0
 10
-4.89117
 20
-8.47569
 30
0.0
 10
-4.89117
 20
-8.47569
 30
0.0
 10
-4.90838
 20
-8.45998
 30
0.0
 10
-4.91704
 20
-8.43984
 30
0.0
 10
-4.91704
 20
-8.41548
 30
0.0
 10
-4.91704
 20
-8.41548
 30
0.0
 10
-4.91704
 20
-8.40109
 30
0.0
 10
-4.91384
 20
-8.38801
 30
0.0
 10
-4.90725
 20
-8.37616
 30
0.0
 10
-4.90725
 20
-8.37616
 30
0.0
 10
-4.90076
 20
-8.3643
 30
0.0
 10
-4.8922
 20
-8.3548
 30
0.0
 10
-4.88166
 20
-8.34765
 30
0.0
 10
-4.88166
 20
-8.34765
 30
0.0
 10
-4.87103
 20
-8.3405
 30
0.0
 10
-4.85918
 20
-8.33505
 30
0.0
 10
-4.84592
 20
-8.33138
 30
0.0
 10
-4.84592
 20
-8.33138
 30
0.0
 10
-4.83623
 20
-8.32884
 30
0.0
 10
-4.82155
 20
-8.3263
 30
0.0
 10
-4.80189
 20
-8.32395
 30
0.0
 10
-4.80189
 20
-8.32395
 30
0.0
 10
-4.76182
 20
-8.31915
 30
0.0
 10
-4.73228
 20
-8.3135
 30
0.0
 10
-4.71337
 20
-8.30683
 30
0.0
 10
-4.71337
 20
-8.30683
 30
0.0
 10
-4.71318
 20
-8.30005
 30
0.0
 10
-4.71309
 20
-8.29572
 30
0.0
 10
-4.71309
 20
-8.29394
 30
0.0
 10
-4.71309
 20
-8.29394
 30
0.0
 10
-4.71309
 20
-8.27371
 30
0.0
 10
-4.71779
 20
-8.25941
 30
0.0
 10
-4.7272
 20
-8.25123
 30
0.0
 10
-4.7272
 20
-8.25123
 30
0.0
 10
-4.7398
 20
-8.23994
 30
0.0
 10
-4.75871
 20
-8.23439
 30
0.0
 10
-4.78364
 20
-8.23439
 30
0.0
 10
-4.78364
 20
-8.23439
 30
0.0
 10
-4.80697
 20
-8.23439
 30
0.0
 10
-4.82419
 20
-8.23843
 30
0.0
 10
-4.83538
 20
-8.24662
 30
0.0
 10
-4.83538
 20
-8.24662
 30
0.0
 10
-4.84648
 20
-8.2548
 30
0.0
 10
-4.85467
 20
-8.26929
 30
0.0
 10
-4.86003
 20
-8.29008
 30
0.0
 10
-4.86003
 20
-8.29008
 30
0.0
 10
-4.86003
 20
-8.29008
 30
0.0
 10
-4.90848
 20
-8.2834
 30
0.0
 10
-4.90848
 20
-8.2834
 30
0.0
 10
-4.90848
 20
-8.2834
 30
0.0
 10
-4.90405
 20
-8.2627
 30
0.0
 10
-4.89681
 20
-8.24587
 30
0.0
 10
-4.88674
 20
-8.23317
 30
0.0
 10
-4.88674
 20
-8.23317
 30
0.0
 10
-4.87668
 20
-8.22037
 30
0.0
 10
-4.862
 20
-8.21049
 30
0.0
 10
-4.84291
 20
-8.20363
 30
0.0
 10
-4.84291
 20
-8.20363
 30
0.0
 10
-4.82381
 20
-8.19676
 30
0.0
 10
-4.8017
 20
-8.19328
 30
0.0
 10
-4.77649
 20
-8.19328
 30
0.0
 10
-4.77649
 20
-8.19328
 30
0.0
 10
-4.75147
 20
-8.19328
 30
0.0
 10
-4.73124
 20
-8.19629
 30
0.0
 10
-4.71563
 20
-8.20212
 30
0.0
 10
-4.71563
 20
-8.20212
 30
0.0
 10
-4.70001
 20
-8.20805
 30
0.0
 10
-4.68853
 20
-8.21539
 30
0.0
 10
-4.6811
 20
-8.22432
 30
0.0
 10
-4.6811
 20
-8.22432
 30
0.0
 10
-4.67376
 20
-8.23326
 30
0.0
 10
-4.66868
 20
-8.24445
 30
0.0
 10
-4.66567
 20
-8.2581
 30
0.0
 10
-4.66567
 20
-8.2581
 30
0.0
 10
-4.66407
 20
-8.26656
 30
0.0
 10
-4.66323
 20
-8.2818
 30
0.0
 10
-4.66323
 20
-8.30381
 30
0.0
 10
-4.66323
 20
-8.30381
 30
0.0
 10
-4.66323
 20
-8.30381
 30
0.0
 10
-4.66323
 20
-8.36995
 30
0.0
 10
-4.66323
 20
-8.36995
 30
0.0
 10
-4.66323
 20
-8.36995
 30
0.0
 10
-4.66323
 20
-8.41614
 30
0.0
 10
-4.66219
 20
-8.4453
 30
0.0
 10
-4.66003
 20
-8.45744
 30
0.0
 10
-4.66003
 20
-8.45744
 30
0.0
 10
-4.65796
 20
-8.46967
 30
0.0
 10
-4.65372
 20
-8.48143
 30
0.0
 10
-4.64752
 20
-8.49262
 30
0.0
 10
-4.64752
 20
-8.49262
 30
0.0
 10
-4.64752
 20
-8.49262
 30
0.0
 10
-4.69935
 20
-8.49262
 30
0.0
 10
-4.69935
 20
-8.49262
 30
0.0
 10
-4.69935
 20
-8.49262
 30
0.0
 10
-4.70443
 20
-8.48237
 30
0.0
 10
-4.70782
 20
-8.47032
 30
0.0
 10
-4.70923
 20
-8.4565
 30
0.0
  0
SPLINE
  5
94
330
1F
100
AcDbEntity
  8
Layer 1
 62
   230
100
AcDbSpline
210
0.0
220
0.0
230
1.0
 70
    11
 71
     3
 72
    44
 73
    40
 74
     0
 42
0.0000000001
 43
0.0000000001
 40
0.0
 40
0.0
 40
0.0
 40
0.0
 40
0.0909090909090909
 40
0.0909090909090909
 40
0.0909090909090909
 40
0.0909090909090909
 40
0.1818181818181818
 40
0.1818181818181818
 40
0.1818181818181818
 40
0.1818181818181818
 40
0.2727272727272727
 40
0.2727272727272727
 40
0.2727272727272727
 40
0.2727272727272727
 40
0.3636363636363636
 40
0.3636363636363636
 40
0.3636363636363636
 40
0.3636363636363636
 40
0.4545454545454545
 40
0.4545454545454545
 40
0.4545454545454545
 40
0.4545454545454545
 40
0.5454545454545454
 40
0.5454545454545454
 40
0.5454545454545454
 40
0.5454545454545454
 40
0.6363636363636364
 40
0.6363636363636364
 40
0.6363636363636364
 40
0.6363636363636364
 40
0.7272727272727273
 40
0.7272727272727273
 40
0.7272727272727273
 40
0.7272727272727273
 40
0.8181818181818182
 40
0.8181818181818182
 40
0.8181818181818182
 40
0.8181818181818182
 40
1.0
 40
1.0
 40
1.0
 40
1.0
 10
-4.71337
 20
-8.34568
 30
0.0
 10
-4.73143
 20
-8.35311
 30
0.0
 10
-4.75843
 20
-8.35932
 30
0.0
 10
-4.79436
 20
-8.36449
 30
0.0
 10
-4.79436
 20
-8.36449
 30
0.0
 10
-4.81478
 20
-8.36741
 30
0.0
 10
-4.82927
 20
-8.3707
 30
0.0
 10
-4.83764
 20
-8.37437
 30
0.0
 10
-4.83764
 20
-8.37437
 30
0.0
 10
-4.8461
 20
-8.37804
 30
0.0
 10
-4.85269
 20
-8.3834
 30
0.0
 10
-4.85721
 20
-8.39055
 30
0.0
 10
-4.85721
 20
-8.39055
 30
0.0
 10
-4.86182
 20
-8.39761
 30
0.0
 10
-4.86417
 20
-8.40541
 30
0.0
 10
-4.86417
 20
-8.41407
 30
0.0
 10
-4.86417
 20
-8.41407
 30
0.0
 10
-4.86417
 20
-8.42733
 30
0.0
 10
-4.85909
 20
-8.43834
 30
0.0
 10
-4.84912
 20
-8.44718
 30
0.0
 10
-4.84912
 20
-8.44718
 30
0.0
 10
-4.83914
 20
-8.45593
 30
0.0
 10
-4.82447
 20
-8.46035
 30
0.0
 10
-4.80518
 20
-8.46035
 30
0.0
 10
-4.80518
 20
-8.46035
 30
0.0
 10
-4.78609
 20
-8.46035
 30
0.0
 10
-4.76906
 20
-8.45621
 30
0.0
 10
-4.7542
 20
-8.44784
 30
0.0
 10
-4.7542
 20
-8.44784
 30
0.0
 10
-4.73933
 20
-8.43947
 30
0.0
 10
-4.72832
 20
-8.42799
 30
0.0
 10
-4.72136
 20
-8.4135
 30
0.0
 10
-4.72136
 20
-8.4135
 30
0.0
 10
-4.716
 20
-8.40231
 30
0.0
 10
-4.71337
 20
-8.38575
 30
0.0
 10
-4.71337
 20
-8.36393
 30
0.0
 10
-4.71337
 20
-8.36393
 30
0.0
 10
-4.71337
 20
-8.36393
 30
0.0
 10
-4.71337
 20
-8.34568
 30
0.0
 10
-4.71337
 20
-8.34568
 30
0.0
  0
SPLINE
  5
95
330
1F
100
AcDbEntity
  8
Layer 1
 62
   230
100
AcDbSpline
210
0.0
220
0.0
230
1.0
 70
    11
 71
     3
 72
    80
 73
    76
 74
     0
 42
0.0000000001
 43
0.0000000001
 40
0.0
 40
0.0
 40
0.0
 40
0.0
 40
0.05
 40
0.05
 40
0.05
 40
0.05
 40
0.1
 40
0.1
 40
0.1
 40
0.1
 40
0.15
 40
0.15
 40
0.15
 40
0.15
 40
0.2
 40
0.2
 40
0.2
 40
0.2
 40
0.25
 40
0.25
 40
0.25
 40
0.25
 40
0.3
 40
0.3
 40
0.3
 40
0.3
 40
0.35
 40
0.35
 40
0.35
 40
0.35
 40
0.4
 40
0.4
 40
0.4
 40
0.4
 40
0.45
 40
0.45
 40
0.45
 40
0.45
 40
0.5
 40
0.5
 40
0.5
 40
0.5
 40
0.55
 40
0.55
 40
0.55
 40
0.55
 40
0.6
 40
0.6
 40
0.6
 40
0.6
 40
0.65
 40
0.65
 40
0.65
 40
0.65
 40
0.7
 40
0.7
 40
0.7
 40
0.7
 40
0.75
 40
0.75
 40
0.75
 40
0.75
 40
0.8
 40
0.8
 40
0.8
 40
0.8
 40
0.85
 40
0.85
 40
0.85
 40
0.85
 40
0.9
 40
0.9
 40
0.9
 40
0.9
 40
1.0
 40
1.0
 40
1.0
 40
1.0
 10
-4.30122
 20
-8.38538
 30
0.0
 10
-4.30122
 20
-8.38538
 30
0.0
 10
-4.25249
 20
-8.39177
 30
0.0
 10
-4.25249
 20
-8.39177
 30
0.0
 10
-4.25249
 20
-8.39177
 30
0.0
 10
-4.25776
 20
-8.42536
 30
0.0
 10
-4.2714
 20
-8.4517
 30
0.0
 10
-4.29341
 20
-8.4707
 30
0.0
 10
-4.29341
 20
-8.4707
 30
0.0
 10
-4.31533
 20
-8.4897
 30
0.0
 10
-4.34233
 20
-8.49921
 30
0.0
 10
-4.37431
 20
-8.49921
 30
0.0
 10
-4.37431
 20
-8.49921
 30
0.0
 10
-4.41429
 20
-8.49921
 30
0.0
 10
-4.44656
 20
-8.48613
 30
0.0
 10
-4.47083
 20
-8.45998
 30
0.0
 10
-4.47083
 20
-8.45998
 30
0.0
 10
-4.4952
 20
-8.43382
 30
0.0
 10
-4.50743
 20
-8.39629
 30
0.0
 10
-4.50743
 20
-8.34737
 30
0.0
 10
-4.50743
 20
-8.34737
 30
0.0
 10
-4.50743
 20
-8.31576
 30
0.0
 10
-4.50216
 20
-8.2881
 30
0.0
 10
-4.49172
 20
-8.2644
 30
0.0
 10
-4.49172
 20
-8.2644
 30
0.0
 10
-4.48118
 20
-8.24069
 30
0.0
 10
-4.46528
 20
-8.22291
 30
0.0
 10
-4.44383
 20
-8.21106
 30
0.0
 10
-4.44383
 20
-8.21106
 30
0.0
 10
-4.42248
 20
-8.19921
 30
0.0
 10
-4.39915
 20
-8.19328
 30
0.0
 10
-4.37403
 20
-8.19328
 30
0.0
 10
-4.37403
 20
-8.19328
 30
0.0
 10
-4.34223
 20
-8.19328
 30
0.0
 10
-4.31618
 20
-8.20137
 30
0.0
 10
-4.29604
 20
-8.21746
 30
0.0
 10
-4.29604
 20
-8.21746
 30
0.0
 10
-4.27582
 20
-8.23354
 30
0.0
 10
-4.26284
 20
-8.25631
 30
0.0
 10
-4.2571
 20
-8.28594
 30
0.0
 10
-4.2571
 20
-8.28594
 30
0.0
 10
-4.2571
 20
-8.28594
 30
0.0
 10
-4.30536
 20
-8.29337
 30
0.0
 10
-4.30536
 20
-8.29337
 30
0.0
 10
-4.30536
 20
-8.29337
 30
0.0
 10
-4.30997
 20
-8.27371
 30
0.0
 10
-4.31806
 20
-8.25894
 30
0.0
 10
-4.32972
 20
-8.24897
 30
0.0
 10
-4.32972
 20
-8.24897
 30
0.0
 10
-4.34139
 20
-8.23909
 30
0.0
 10
-4.3555
 20
-8.23411
 30
0.0
 10
-4.37206
 20
-8.23411
 30
0.0
 10
-4.37206
 20
-8.23411
 30
0.0
 10
-4.39708
 20
-8.23411
 30
0.0
 10
-4.4174
 20
-8.24304
 30
0.0
 10
-4.43301
 20
-8.26101
 30
0.0
 10
-4.43301
 20
-8.26101
 30
0.0
 10
-4.44863
 20
-8.27889
 30
0.0
 10
-4.45644
 20
-8.3072
 30
0.0
 10
-4.45644
 20
-8.34596
 30
0.0
 10
-4.45644
 20
-8.34596
 30
0.0
 10
-4.45644
 20
-8.38528
 30
0.0
 10
-4.44891
 20
-8.41388
 30
0.0
 10
-4.43377
 20
-8.43175
 30
0.0
 10
-4.43377
 20
-8.43175
 30
0.0
 10
-4.41872
 20
-8.44953
 30
0.0
 10
-4.39905
 20
-8.45847
 30
0.0
 10
-4.37478
 20
-8.45847
 30
0.0
 10
-4.37478
 20
-8.45847
 30
0.0
 10
-4.35531
 20
-8.45847
 30
0.0
 10
-4.33913
 20
-8.45245
 30
0.0
 10
-4.32605
 20
-8.4405
 30
0.0
 10
-4.32605
 20
-8.4405
 30
0.0
 10
-4.31298
 20
-8.42856
 30
0.0
 10
-4.3047
 20
-8.41021
 30
0.0
 10
-4.30122
 20
-8.38538
 30
0.0
  0
SPLINE
  5
96
330
1F
100
AcDbEntity
  8
Layer 1
 62
   230
100
AcDbSpline
210
0.0
220
0.0
230
1.0
 70
    11
 71
     3
 72
    52
 73
    48
 74
     0
 42
0.0000000001
 43
0.0000000001
 40
0.0
 40
0.0
 40
0.0
 40
0.0
 40
0.0769230769230769
 40
0.0769230769230769
 40
0.0769230769230769
 40
0.0769230769230769
 40
0.1538461538461539
 40
0.1538461538461539
 40
0.1538461538461539
 40
0.1538461538461539
 40
0.2307692307692308
 40
0.2307692307692308
 40
0.2307692307692308
 40
0.2307692307692308
 40
0.3076923076923077
 40
0.3076923076923077
 40
0.3076923076923077
 40
0.3076923076923077
 40
0.3846153846153846
 40
0.3846153846153846
 40
0.3846153846153846
 40
0.3846153846153846
 40
0.4615384615384616
 40
0.4615384615384616
 40
0.4615384615384616
 40
0.4615384615384616
 40
0.5384615384615384
 40
0.5384615384615384
 40
0.5384615384615384
 40
0.5384615384615384
 40
0.6153846153846154
 40
0.6153846153846154
 40
0.6153846153846154
 40
0.6153846153846154
 40
0.6923076923076923
 40
0.6923076923076923
 40
0.6923076923076923
 40
0.6923076923076923
 40
0.7692307692307693
 40
0.7692307692307693
 40
0.7692307692307693
 40
0.7692307692307693
 40
0.8461538461538461
 40
0.8461538461538461
 40
0.8461538461538461
 40
0.8461538461538461
 40
1.0
 40
1.0
 40
1.0
 40
1.0
 10
-4.11569
 20
-8.49262
 30
0.0
 10
-4.11569
 20
-8.49262
 30
0.0
 10
-4.11569
 20
-8.08858
 30
0.0
 10
-4.11569
 20
-8.08858
 30
0.0
 10
-4.11569
 20
-8.08858
 30
0.0
 10
-4.11569
 20
-8.08858
 30
0.0
 10
-4.06602
 20
-8.08858
 30
0.0
 10
-4.06602
 20
-8.08858
 30
0.0
 10
-4.06602
 20
-8.08858
 30
0.0
 10
-4.06602
 20
-8.08858
 30
0.0
 10
-4.06602
 20
-8.31896
 30
0.0
 10
-4.06602
 20
-8.31896
 30
0.0
 10
-4.06602
 20
-8.31896
 30
0.0
 10
-4.06602
 20
-8.31896
 30
0.0
 10
-3.94861
 20
-8.19996
 30
0.0
 10
-3.94861
 20
-8.19996
 30
0.0
 10
-3.94861
 20
-8.19996
 30
0.0
 10
-3.94861
 20
-8.19996
 30
0.0
 10
-3.88446
 20
-8.19996
 30
0.0
 10
-3.88446
 20
-8.19996
 30
0.0
 10
-3.88446
 20
-8.19996
 30
0.0
 10
-3.88446
 20
-8.19996
 30
0.0
 10
-3.99631
 20
-8.30852
 30
0.0
 10
-3.99631
 20
-8.30852
 30
0.0
 10
-3.99631
 20
-8.30852
 30
0.0
 10
-3.99631
 20
-8.30852
 30
0.0
 10
-3.87307
 20
-8.49262
 30
0.0
 10
-3.87307
 20
-8.49262
 30
0.0
 10
-3.87307
 20
-8.49262
 30
0.0
 10
-3.87307
 20
-8.49262
 30
0.0
 10
-3.93432
 20
-8.49262
 30
0.0
 10
-3.93432
 20
-8.49262
 30
0.0
 10
-3.93432
 20
-8.49262
 30
0.0
 10
-3.93432
 20
-8.49262
 30
0.0
 10
-4.03102
 20
-8.34295
 30
0.0
 10
-4.03102
 20
-8.34295
 30
0.0
 10
-4.03102
 20
-8.34295
 30
0.0
 10
-4.03102
 20
-8.34295
 30
0.0
 10
-4.06602
 20
-8.37663
 30
0.0
 10
-4.06602
 20
-8.37663
 30
0.0
 10
-4.06602
 20
-8.37663
 30
0.0
 10
-4.06602
 20
-8.37663
 30
0.0
 10
-4.06602
 20
-8.49262
 30
0.0
 10
-4.06602
 20
-8.49262
 30
0.0
 10
-4.06602
 20
-8.49262
 30
0.0
 10
-4.06602
 20
-8.49262
 30
0.0
 10
-4.11569
 20
-8.49262
 30
0.0
 10
-4.11569
 20
-8.49262
 30
0.0
  0
SPLINE
  5
97
330
1F
100
AcDbEntity
  8
Layer 1
 62
   230
100
AcDbSpline
210
0.0
220
0.0
230
1.0
 70
    11
 71
     3
 72
    20
 73
    16
 74
     0
 42
0.0000000001
 43
0.0000000001
 40
0.0
 40
0.0
 40
0.0
 40
0.0
 40
0.2
 40
0.2
 40
0.2
 40
0.2
 40
0.4
 40
0.4
 40
0.4
 40
0.4
 40
0.6
 40
0.6
 40
0.6
 40
0.6
 40
1.0
 40
1.0
 40
1.0
 40
1.0
 10
-3.73938
 20
-8.14568
 30
0.0
 10
-3.73938
 20
-8.14568
 30
0.0
 10
-3.73938
 20
-8.08858
 30
0.0
 10
-3.73938
 20
-8.08858
 30
0.0
 10
-3.73938
 20
-8.08858
 30
0.0
 10
-3.73938
 20
-8.08858
 30
0.0
 10
-3.68971
 20
-8.08858
 30
0.0
 10
-3.68971
 20
-8.08858
 30
0.0
 10
-3.68971
 20
-8.08858
 30
0.0
 10
-3.68971
 20
-8.08858
 30
0.0
 10
-3.68971
 20
-8.14568
 30
0.0
 10
-3.68971
 20
-8.14568
 30
0.0
 10
-3.68971
 20
-8.14568
 30
0.0
 10
-3.68971
 20
-8.14568
 30
0.0
 10
-3.73938
 20
-8.14568
 30
0.0
 10
-3.73938
 20
-8.14568
 30
0.0
  0
SPLINE
  5
98
330
1F
100
AcDbEntity
  8
Layer 1
 62
   230
100
AcDbSpline
210
0.0
220
0.0
230
1.0
 70
    11
 71
     3
 72
    20
 73
    16
 74
     0
 42
0.0000000001
 43
0.0000000001
 40
0.0
 40
0.0
 40
0.0
 40
0.0
 40
0.2
 40
0.2
 40
0.2
 40
0.2
 40
0.4
 40
0.4
 40
0.4
 40
0.4
 40
0.6
 40
0.6
 40
0.6
 40
0.6
 40
1.0
 40
1.0
 40
1.0
 40
1.0
 10
-3.73938
 20
-8.49262
 30
0.0
 10
-3.73938
 20
-8.49262
 30
0.0
 10
-3.73938
 20
-8.19996
 30
0.0
 10
-3.73938
 20
-8.19996
 30
0.0
 10
-3.73938
 20
-8.19996
 30
0.0
 10
-3.73938
 20
-8.19996
 30
0.0
 10
-3.68971
 20
-8.19996
 30
0.0
 10
-3.68971
 20
-8.19996
 30
0.0
 10
-3.68971
 20
-8.19996
 30
0.0
 10
-3.68971
 20
-8.19996
 30
0.0
 10
-3.68971
 20
-8.49262
 30
0.0
 10
-3.68971
 20
-8.49262
 30
0.0
 10
-3.68971
 20
-8.49262
 30
0.0
 10
-3.68971
 20
-8.49262
 30
0.0
 10
-3.73938
 20
-8.49262
 30
0.0
 10
-3.73938
 20
-8.49262
 30
0.0
  0
SPLINE
  5
99
330
1F
100
AcDbEntity
  8
Layer 1
 62
   230
100
AcDbSpline
210
0.0
220
0.0
230
1.0
 70
    11
 71
     3
 72
    76
 73
    72
 74
     0
 42
0.0000000001
 43
0.0000000001
 40
0.0
 40
0.0
 40
0.0
 40
0.0
 40
0.0526315789473684
 40
0.0526315789473684
 40
0.0526315789473684
 40
0.0526315789473684
 40
0.1052631578947368
 40
0.1052631578947368
 40
0.1052631578947368
 40
0.1052631578947368
 40
0.1578947368421053
 40
0.1578947368421053
 40
0.1578947368421053
 40
0.1578947368421053
 40
0.2105263157894737
 40
0.2105263157894737
 40
0.2105263157894737
 40
0.2105263157894737
 40
0.2631578947368421
 40
0.2631578947368421
 40
0.2631578947368421
 40
0.2631578947368421
 40
0.3157894736842105
 40
0.3157894736842105
 40
0.3157894736842105
 40
0.3157894736842105
 40
0.3684210526315789
 40
0.3684210526315789
 40
0.3684210526315789
 40
0.3684210526315789
 40
0.4210526315789473
 40
0.4210526315789473
 40
0.4210526315789473
 40
0.4210526315789473
 40
0.4736842105263158
 40
0.4736842105263158
 40
0.4736842105263158
 40
0.4736842105263158
 40
0.5263157894736842
 40
0.5263157894736842
 40
0.5263157894736842
 40
0.5263157894736842
 40
0.5789473684210527
 40
0.5789473684210527
 40
0.5789473684210527
 40
0.5789473684210527
 40
0.631578947368421
 40
0.631578947368421
 40
0.631578947368421
 40
0.631578947368421
 40
0.6842105263157895
 40
0.6842105263157895
 40
0.6842105263157895
 40
0.6842105263157895
 40
0.7368421052631579
 40
0.7368421052631579
 40
0.7368421052631579
 40
0.7368421052631579
 40
0.7894736842105263
 40
0.7894736842105263
 40
0.7894736842105263
 40
0.7894736842105263
 40
0.8421052631578947
 40
0.8421052631578947
 40
0.8421052631578947
 40
0.8421052631578947
 40
0.8947368421052632
 40
0.8947368421052632
 40
0.8947368421052632
 40
0.8947368421052632
 40
1.0
 40
1.0
 40
1.0
 40
1.0
 10
-3.52008
 20
-8.49262
 30
0.0
 10
-3.52008
 20
-8.49262
 30
0.0
 10
-3.52008
 20
-8.19996
 30
0.0
 10
-3.52008
 20
-8.19996
 30
0.0
 10
-3.52008
 20
-8.19996
 30
0.0
 10
-3.52008
 20
-8.19996
 30
0.0
 10
-3.47549
 20
-8.19996
 30
0.0
 10
-3.47549
 20
-8.19996
 30
0.0
 10
-3.47549
 20
-8.19996
 30
0.0
 10
-3.47549
 20
-8.19996
 30
0.0
 10
-3.47549
 20
-8.24154
 30
0.0
 10
-3.47549
 20
-8.24154
 30
0.0
 10
-3.47549
 20
-8.24154
 30
0.0
 10
-3.45394
 20
-8.20937
 30
0.0
 10
-3.4229
 20
-8.19328
 30
0.0
 10
-3.38235
 20
-8.19328
 30
0.0
 10
-3.38235
 20
-8.19328
 30
0.0
 10
-3.36467
 20
-8.19328
 30
0.0
 10
-3.34849
 20
-8.19648
 30
0.0
 10
-3.33372
 20
-8.20278
 30
0.0
 10
-3.33372
 20
-8.20278
 30
0.0
 10
-3.31885
 20
-8.20918
 30
0.0
 10
-3.30785
 20
-8.21746
 30
0.0
 10
-3.30051
 20
-8.2278
 30
0.0
 10
-3.30051
 20
-8.2278
 30
0.0
 10
-3.29308
 20
-8.23806
 30
0.0
 10
-3.288
 20
-8.25029
 30
0.0
 10
-3.28499
 20
-8.2644
 30
0.0
 10
-3.28499
 20
-8.2644
 30
0.0
 10
-3.2832
 20
-8.27362
 30
0.0
 10
-3.28226
 20
-8.2897
 30
0.0
 10
-3.28226
 20
-8.31266
 30
0.0
 10
-3.28226
 20
-8.31266
 30
0.0
 10
-3.28226
 20
-8.31266
 30
0.0
 10
-3.28226
 20
-8.49262
 30
0.0
 10
-3.28226
 20
-8.49262
 30
0.0
 10
-3.28226
 20
-8.49262
 30
0.0
 10
-3.28226
 20
-8.49262
 30
0.0
 10
-3.33193
 20
-8.49262
 30
0.0
 10
-3.33193
 20
-8.49262
 30
0.0
 10
-3.33193
 20
-8.49262
 30
0.0
 10
-3.33193
 20
-8.49262
 30
0.0
 10
-3.33193
 20
-8.31454
 30
0.0
 10
-3.33193
 20
-8.31454
 30
0.0
 10
-3.33193
 20
-8.31454
 30
0.0
 10
-3.33193
 20
-8.29441
 30
0.0
 10
-3.33381
 20
-8.27926
 30
0.0
 10
-3.33767
 20
-8.2692
 30
0.0
 10
-3.33767
 20
-8.2692
 30
0.0
 10
-3.34153
 20
-8.25922
 30
0.0
 10
-3.34839
 20
-8.25123
 30
0.0
 10
-3.35818
 20
-8.2453
 30
0.0
 10
-3.35818
 20
-8.2453
 30
0.0
 10
-3.36805
 20
-8.23928
 30
0.0
 10
-3.37953
 20
-8.23627
 30
0.0
 10
-3.3928
 20
-8.23627
 30
0.0
 10
-3.3928
 20
-8.23627
 30
0.0
 10
-3.41396
 20
-8.23627
 30
0.0
 10
-3.43212
 20
-8.24304
 30
0.0
 10
-3.44755
 20
-8.2564
 30
0.0
 10
-3.44755
 20
-8.2564
 30
0.0
 10
-3.46288
 20
-8.26985
 30
0.0
 10
-3.4705
 20
-8.29525
 30
0.0
 10
-3.4705
 20
-8.33279
 30
0.0
 10
-3.4705
 20
-8.33279
 30
0.0
 10
-3.4705
 20
-8.33279
 30
0.0
 10
-3.4705
 20
-8.49262
 30
0.0
 10
-3.4705
 20
-8.49262
 30
0.0
 10
-3.4705
 20
-8.49262
 30
0.0
 10
-3.4705
 20
-8.49262
 30
0.0
 10
-3.52008
 20
-8.49262
 30
0.0
 10
-3.52008
 20
-8.49262
 30
0.0
  0
SPLINE
  5
9A
330
1F
100
AcDbEntity
  8
Layer 1
 62
   230
100
AcDbSpline
210
0.0
220
0.0
230
1.0
 70
    11
 71
     3
 72
    88
 73
    84
 74
     0
 42
0.0000000001
 43
0.0000000001
 40
0.0
 40
0.0
 40
0.0
 40
0.0
 40
0.0454545454545455
 40
0.0454545454545455
 40
0.0454545454545455
 40
0.0454545454545455
 40
0.0909090909090909
 40
0.0909090909090909
 40
0.0909090909090909
 40
0.0909090909090909
 40
0.1363636363636364
 40
0.1363636363636364
 40
0.1363636363636364
 40
0.1363636363636364
 40
0.1818181818181818
 40
0.1818181818181818
 40
0.1818181818181818
 40
0.1818181818181818
 40
0.2272727272727273
 40
0.2272727272727273
 40
0.2272727272727273
 40
0.2272727272727273
 40
0.2727272727272727
 40
0.2727272727272727
 40
0.2727272727272727
 40
0.2727272727272727
 40
0.3181818181818182
 40
0.3181818181818182
 40
0.3181818181818182
 40
0.3181818181818182
 40
0.3636363636363636
 40
0.3636363636363636
 40
0.3636363636363636
 40
0.3636363636363636
 40
0.4090909090909091
 40
0.4090909090909091
 40
0.4090909090909091
 40
0.4090909090909091
 40
0.4545454545454545
 40
0.4545454545454545
 40
0.4545454545454545
 40
0.4545454545454545
 40
0.5
 40
0.5
 40
0.5
 40
0.5
 40
0.5454545454545454
 40
0.5454545454545454
 40
0.5454545454545454
 40
0.5454545454545454
 40
0.5909090909090909
 40
0.5909090909090909
 40
0.5909090909090909
 40
0.5909090909090909
 40
0.6363636363636364
 40
0.6363636363636364
 40
0.6363636363636364
 40
0.6363636363636364
 40
0.6818181818181818
 40
0.6818181818181818
 40
0.6818181818181818
 40
0.6818181818181818
 40
0.7272727272727273
 40
0.7272727272727273
 40
0.7272727272727273
 40
0.7272727272727273
 40
0.7727272727272727
 40
0.7727272727272727
 40
0.7727272727272727
 40
0.7727272727272727
 40
0.8181818181818182
 40
0.8181818181818182
 40
0.8181818181818182
 40
0.8181818181818182
 40
0.8636363636363636
 40
0.8636363636363636
 40
0.8636363636363636
 40
0.8636363636363636
 40
0.9090909090909091
 40
0.9090909090909091
 40
0.9090909090909091
 40
0.9090909090909091
 40
1.0
 40
1.0
 40
1.0
 40
1.0
 10
-3.12119
 20
-8.51689
 30
0.0
 10
-3.12119
 20
-8.51689
 30
0.0
 10
-3.07293
 20
-8.52404
 30
0.0
 10
-3.07293
 20
-8.52404
 30
0.0
 10
-3.07293
 20
-8.52404
 30
0.0
 10
-3.07096
 20
-8.5389
 30
0.0
 10
-3.06531
 20
-8.54972
 30
0.0
 10
-3.05619
 20
-8.55659
 30
0.0
 10
-3.05619
 20
-8.55659
 30
0.0
 10
-3.04386
 20
-8.56571
 30
0.0
 10
-3.02702
 20
-8.57032
 30
0.0
 10
-3.00576
 20
-8.57032
 30
0.0
 10
-3.00576
 20
-8.57032
 30
0.0
 10
-2.98272
 20
-8.57032
 30
0.0
 10
-2.96503
 20
-8.56571
 30
0.0
 10
-2.95252
 20
-8.55659
 30
0.0
 10
-2.95252
 20
-8.55659
 30
0.0
 10
-2.94001
 20
-8.54737
 30
0.0
 10
-2.93163
 20
-8.53448
 30
0.0
 10
-2.92721
 20
-8.51802
 30
0.0
 10
-2.92721
 20
-8.51802
 30
0.0
 10
-2.92458
 20
-8.50786
 30
0.0
 10
-2.92345
 20
-8.48669
 30
0.0
 10
-2.92364
 20
-8.45433
 30
0.0
 10
-2.92364
 20
-8.45433
 30
0.0
 10
-2.94527
 20
-8.47983
 30
0.0
 10
-2.97227
 20
-8.49262
 30
0.0
 10
-3.00464
 20
-8.49262
 30
0.0
 10
-3.00464
 20
-8.49262
 30
0.0
 10
-3.0449
 20
-8.49262
 30
0.0
 10
-3.07604
 20
-8.47813
 30
0.0
 10
-3.09805
 20
-8.44906
 30
0.0
 10
-3.09805
 20
-8.44906
 30
0.0
 10
-3.12006
 20
-8.42009
 30
0.0
 10
-3.13116
 20
-8.38519
 30
0.0
 10
-3.13116
 20
-8.34464
 30
0.0
 10
-3.13116
 20
-8.34464
 30
0.0
 10
-3.13116
 20
-8.3167
 30
0.0
 10
-3.12608
 20
-8.29093
 30
0.0
 10
-3.11602
 20
-8.26731
 30
0.0
 10
-3.11602
 20
-8.26731
 30
0.0
 10
-3.10586
 20
-8.2437
 30
0.0
 10
-3.09118
 20
-8.22545
 30
0.0
 10
-3.07199
 20
-8.21256
 30
0.0
 10
-3.07199
 20
-8.21256
 30
0.0
 10
-3.0528
 20
-8.19977
 30
0.0
 10
-3.03022
 20
-8.19328
 30
0.0
 10
-3.00435
 20
-8.19328
 30
0.0
 10
-3.00435
 20
-8.19328
 30
0.0
 10
-2.96983
 20
-8.19328
 30
0.0
 10
-2.94132
 20
-8.2073
 30
0.0
 10
-2.91893
 20
-8.23524
 30
0.0
 10
-2.91893
 20
-8.23524
 30
0.0
 10
-2.91893
 20
-8.23524
 30
0.0
 10
-2.91893
 20
-8.19996
 30
0.0
 10
-2.91893
 20
-8.19996
 30
0.0
 10
-2.91893
 20
-8.19996
 30
0.0
 10
-2.91893
 20
-8.19996
 30
0.0
 10
-2.87312
 20
-8.19996
 30
0.0
 10
-2.87312
 20
-8.19996
 30
0.0
 10
-2.87312
 20
-8.19996
 30
0.0
 10
-2.87312
 20
-8.19996
 30
0.0
 10
-2.87312
 20
-8.45292
 30
0.0
 10
-2.87312
 20
-8.45292
 30
0.0
 10
-2.87312
 20
-8.45292
 30
0.0
 10
-2.87312
 20
-8.49845
 30
0.0
 10
-2.87782
 20
-8.53081
 30
0.0
 10
-2.88704
 20
-8.54982
 30
0.0
 10
-2.88704
 20
-8.54982
 30
0.0
 10
-2.89636
 20
-8.56882
 30
0.0
 10
-2.91103
 20
-8.58387
 30
0.0
 10
-2.93116
 20
-8.59488
 30
0.0
 10
-2.93116
 20
-8.59488
 30
0.0
 10
-2.9513
 20
-8.60588
 30
0.0
 10
-2.97604
 20
-8.61143
 30
0.0
 10
-3.00548
 20
-8.61143
 30
0.0
 10
-3.00548
 20
-8.61143
 30
0.0
 10
-3.04038
 20
-8.61143
 30
0.0
 10
-3.06861
 20
-8.60353
 30
0.0
 10
-3.09005
 20
-8.58782
 30
0.0
 10
-3.09005
 20
-8.58782
 30
0.0
 10
-3.1116
 20
-8.57211
 30
0.0
 10
-3.12194
 20
-8.5485
 30
0.0
 10
-3.12119
 20
-8.51689
 30
0.0
  0
SPLINE
  5
9B
330
1F
100
AcDbEntity
  8
Layer 1
 62
   230
100
AcDbSpline
210
0.0
220
0.0
230
1.0
 70
    11
 71
     3
 72
    36
 73
    32
 74
     0
 42
0.0000000001
 43
0.0000000001
 40
0.0
 40
0.0
 40
0.0
 40
0.0
 40
0.1111111111111111
 40
0.1111111111111111
 40
0.1111111111111111
 40
0.1111111111111111
 40
0.2222222222222222
 40
0.2222222222222222
 40
0.2222222222222222
 40
0.2222222222222222
 40
0.3333333333333333
 40
0.3333333333333333
 40
0.3333333333333333
 40
0.3333333333333333
 40
0.4444444444444444
 40
0.4444444444444444
 40
0.4444444444444444
 40
0.4444444444444444
 40
0.5555555555555556
 40
0.5555555555555556
 40
0.5555555555555556
 40
0.5555555555555556
 40
0.6666666666666666
 40
0.6666666666666666
 40
0.6666666666666666
 40
0.6666666666666666
 40
0.7777777777777778
 40
0.7777777777777778
 40
0.7777777777777778
 40
0.7777777777777778
 40
1.0
 40
1.0
 40
1.0
 40
1.0
 10
-3.08018
 20
-8.34107
 30
0.0
 10
-3.08018
 20
-8.37945
 30
0.0
 10
-3.07256
 20
-8.40748
 30
0.0
 10
-3.05722
 20
-8.42508
 30
0.0
 10
-3.05722
 20
-8.42508
 30
0.0
 10
-3.04198
 20
-8.44276
 30
0.0
 10
-3.02289
 20
-8.45151
 30
0.0
 10
-2.99993
 20
-8.45151
 30
0.0
 10
-2.99993
 20
-8.45151
 30
0.0
 10
-2.97717
 20
-8.45151
 30
0.0
 10
-2.95807
 20
-8.44276
 30
0.0
 10
-2.94264
 20
-8.42526
 30
0.0
 10
-2.94264
 20
-8.42526
 30
0.0
 10
-2.92721
 20
-8.40767
 30
0.0
 10
-2.9195
 20
-8.3802
 30
0.0
 10
-2.9195
 20
-8.34267
 30
0.0
 10
-2.9195
 20
-8.34267
 30
0.0
 10
-2.9195
 20
-8.30683
 30
0.0
 10
-2.9274
 20
-8.27983
 30
0.0
 10
-2.9433
 20
-8.26167
 30
0.0
 10
-2.9433
 20
-8.26167
 30
0.0
 10
-2.9592
 20
-8.24351
 30
0.0
 10
-2.97839
 20
-8.23439
 30
0.0
 10
-3.00078
 20
-8.23439
 30
0.0
 10
-3.00078
 20
-8.23439
 30
0.0
 10
-3.02279
 20
-8.23439
 30
0.0
 10
-3.04151
 20
-8.24333
 30
0.0
 10
-3.05703
 20
-8.26129
 30
0.0
 10
-3.05703
 20
-8.26129
 30
0.0
 10
-3.07246
 20
-8.27917
 30
0.0
 10
-3.08018
 20
-8.30579
 30
0.0
 10
-3.08018
 20
-8.34107
 30
0.0
  0
SPLINE
  5
9C
330
1F
100
AcDbEntity
  8
Layer 1
 62
   230
100
AcDbSpline
210
0.0
220
0.0
230
1.0
 70
    11
 71
     3
 72
    72
 73
    68
 74
     0
 42
0.0000000001
 43
0.0000000001
 40
0.0
 40
0.0
 40
0.0
 40
0.0
 40
0.0555555555555556
 40
0.0555555555555556
 40
0.0555555555555556
 40
0.0555555555555556
 40
0.1111111111111111
 40
0.1111111111111111
 40
0.1111111111111111
 40
0.1111111111111111
 40
0.1666666666666667
 40
0.1666666666666667
 40
0.1666666666666667
 40
0.1666666666666667
 40
0.2222222222222222
 40
0.2222222222222222
 40
0.2222222222222222
 40
0.2222222222222222
 40
0.2777777777777778
 40
0.2777777777777778
 40
0.2777777777777778
 40
0.2777777777777778
 40
0.3333333333333333
 40
0.3333333333333333
 40
0.3333333333333333
 40
0.3333333333333333
 40
0.3888888888888889
 40
0.3888888888888889
 40
0.3888888888888889
 40
0.3888888888888889
 40
0.4444444444444444
 40
0.4444444444444444
 40
0.4444444444444444
 40
0.4444444444444444
 40
0.5
 40
0.5
 40
0.5
 40
0.5
 40
0.5555555555555556
 40
0.5555555555555556
 40
0.5555555555555556
 40
0.5555555555555556
 40
0.6111111111111112
 40
0.6111111111111112
 40
0.6111111111111112
 40
0.6111111111111112
 40
0.6666666666666666
 40
0.6666666666666666
 40
0.6666666666666666
 40
0.6666666666666666
 40
0.7222222222222222
 40
0.7222222222222222
 40
0.7222222222222222
 40
0.7222222222222222
 40
0.7777777777777778
 40
0.7777777777777778
 40
0.7777777777777778
 40
0.7777777777777778
 40
0.8333333333333334
 40
0.8333333333333334
 40
0.8333333333333334
 40
0.8333333333333334
 40
0.8888888888888888
 40
0.8888888888888888
 40
0.8888888888888888
 40
0.8888888888888888
 40
1.0
 40
1.0
 40
1.0
 40
1.0
 10
-2.20224
 20
-8.49262
 30
0.0
 10
-2.20224
 20
-8.49262
 30
0.0
 10
-2.20224
 20
-8.08858
 30
0.0
 10
-2.20224
 20
-8.08858
 30
0.0
 10
-2.20224
 20
-8.08858
 30
0.0
 10
-2.20224
 20
-8.08858
 30
0.0
 10
-2.15266
 20
-8.08858
 30
0.0
 10
-2.15266
 20
-8.08858
 30
0.0
 10
-2.15266
 20
-8.08858
 30
0.0
 10
-2.15266
 20
-8.08858
 30
0.0
 10
-2.15266
 20
-8.23354
 30
0.0
 10
-2.15266
 20
-8.23354
 30
0.0
 10
-2.15266
 20
-8.23354
 30
0.0
 10
-2.12952
 20
-8.20673
 30
0.0
 10
-2.10026
 20
-8.19328
 30
0.0
 10
-2.06498
 20
-8.19328
 30
0.0
 10
-2.06498
 20
-8.19328
 30
0.0
 10
-2.04335
 20
-8.19328
 30
0.0
 10
-2.02453
 20
-8.19761
 30
0.0
 10
-2.00854
 20
-8.20617
 30
0.0
 10
-2.00854
 20
-8.20617
 30
0.0
 10
-1.99255
 20
-8.21463
 30
0.0
 10
-1.98107
 20
-8.22649
 30
0.0
 10
-1.9742
 20
-8.24154
 30
0.0
 10
-1.9742
 20
-8.24154
 30
0.0
 10
-1.96734
 20
-8.25659
 30
0.0
 10
-1.96386
 20
-8.27851
 30
0.0
 10
-1.96386
 20
-8.30711
 30
0.0
 10
-1.96386
 20
-8.30711
 30
0.0
 10
-1.96386
 20
-8.30711
 30
0.0
 10
-1.96386
 20
-8.49262
 30
0.0
 10
-1.96386
 20
-8.49262
 30
0.0
 10
-1.96386
 20
-8.49262
 30
0.0
 10
-1.96386
 20
-8.49262
 30
0.0
 10
-2.01353
 20
-8.49262
 30
0.0
 10
-2.01353
 20
-8.49262
 30
0.0
 10
-2.01353
 20
-8.49262
 30
0.0
 10
-2.01353
 20
-8.49262
 30
0.0
 10
-2.01353
 20
-8.30711
 30
0.0
 10
-2.01353
 20
-8.30711
 30
0.0
 10
-2.01353
 20
-8.30711
 30
0.0
 10
-2.01353
 20
-8.28237
 30
0.0
 10
-2.01889
 20
-8.2643
 30
0.0
 10
-2.02961
 20
-8.25302
 30
0.0
 10
-2.02961
 20
-8.25302
 30
0.0
 10
-2.04034
 20
-8.24173
 30
0.0
 10
-2.05558
 20
-8.23599
 30
0.0
 10
-2.07524
 20
-8.23599
 30
0.0
 10
-2.07524
 20
-8.23599
 30
0.0
 10
-2.08991
 20
-8.23599
 30
0.0
 10
-2.10374
 20
-8.23984
 30
0.0
 10
-2.11672
 20
-8.24746
 30
0.0
 10
-2.11672
 20
-8.24746
 30
0.0
 10
-2.12971
 20
-8.25508
 30
0.0
 10
-2.13893
 20
-8.26543
 30
0.0
 10
-2.14438
 20
-8.27851
 30
0.0
 10
-2.14438
 20
-8.27851
 30
0.0
 10
-2.14993
 20
-8.29149
 30
0.0
 10
-2.15266
 20
-8.30955
 30
0.0
 10
-2.15266
 20
-8.33251
 30
0.0
 10
-2.15266
 20
-8.33251
 30
0.0
 10
-2.15266
 20
-8.33251
 30
0.0
 10
-2.15266
 20
-8.49262
 30
0.0
 10
-2.15266
 20
-8.49262
 30
0.0
 10
-2.15266
 20
-8.49262
 30
0.0
 10
-2.15266
 20
-8.49262
 30
0.0
 10
-2.20224
 20
-8.49262
 30
0.0
 10
-2.20224
 20
-8.49262
 30
0.0
  0
SPLINE
  5
9D
330
1F
100
AcDbEntity
  8
Layer 1
 62
   230
100
AcDbSpline
210
0.0
220
0.0
230
1.0
 70
    11
 71
     3
 72
   112
 73
   108
 74
     0
 42
0.0000000001
 43
0.0000000001
 40
0.0
 40
0.0
 40
0.0
 40
0.0
 40
0.0357142857142857
 40
0.0357142857142857
 40
0.0357142857142857
 40
0.0357142857142857
 40
0.0714285714285714
 40
0.0714285714285714
 40
0.0714285714285714
 40
0.0714285714285714
 40
0.1071428571428571
 40
0.1071428571428571
 40
0.1071428571428571
 40
0.1071428571428571
 40
0.1428571428571428
 40
0.1428571428571428
 40
0.1428571428571428
 40
0.1428571428571428
 40
0.1785714285714286
 40
0.1785714285714286
 40
0.1785714285714286
 40
0.1785714285714286
 40
0.2142857142857143
 40
0.2142857142857143
 40
0.2142857142857143
 40
0.2142857142857143
 40
0.25
 40
0.25
 40
0.25
 40
0.25
 40
0.2857142857142857
 40
0.2857142857142857
 40
0.2857142857142857
 40
0.2857142857142857
 40
0.3214285714285715
 40
0.3214285714285715
 40
0.3214285714285715
 40
0.3214285714285715
 40
0.3571428571428572
 40
0.3571428571428572
 40
0.3571428571428572
 40
0.3571428571428572
 40
0.3928571428571428
 40
0.3928571428571428
 40
0.3928571428571428
 40
0.3928571428571428
 40
0.4285714285714285
 40
0.4285714285714285
 40
0.4285714285714285
 40
0.4285714285714285
 40
0.4642857142857143
 40
0.4642857142857143
 40
0.4642857142857143
 40
0.4642857142857143
 40
0.5
 40
0.5
 40
0.5
 40
0.5
 40
0.5357142857142857
 40
0.5357142857142857
 40
0.5357142857142857
 40
0.5357142857142857
 40
0.5714285714285714
 40
0.5714285714285714
 40
0.5714285714285714
 40
0.5714285714285714
 40
0.6071428571428571
 40
0.6071428571428571
 40
0.6071428571428571
 40
0.6071428571428571
 40
0.6428571428571429
 40
0.6428571428571429
 40
0.6428571428571429
 40
0.6428571428571429
 40
0.6785714285714286
 40
0.6785714285714286
 40
0.6785714285714286
 40
0.6785714285714286
 40
0.7142857142857143
 40
0.7142857142857143
 40
0.7142857142857143
 40
0.7142857142857143
 40
0.75
 40
0.75
 40
0.75
 40
0.75
 40
0.7857142857142857
 40
0.7857142857142857
 40
0.7857142857142857
 40
0.7857142857142857
 40
0.8214285714285714
 40
0.8214285714285714
 40
0.8214285714285714
 40
0.8214285714285714
 40
0.8571428571428571
 40
0.8571428571428571
 40
0.8571428571428571
 40
0.8571428571428571
 40
0.8928571428571429
 40
0.8928571428571429
 40
0.8928571428571429
 40
0.8928571428571429
 40
0.9285714285714286
 40
0.9285714285714286
 40
0.9285714285714286
 40
0.9285714285714286
 40
1.0
 40
1.0
 40
1.0
 40
1.0
 10
-1.60326
 20
-8.4565
 30
0.0
 10
-1.6217
 20
-8.47211
 30
0.0
 10
-1.63938
 20
-8.48312
 30
0.0
 10
-1.65632
 20
-8.48961
 30
0.0
 10
-1.65632
 20
-8.48961
 30
0.0
 10
-1.67334
 20
-8.49601
 30
0.0
 10
-1.69159
 20
-8.49921
 30
0.0
 10
-1.71107
 20
-8.49921
 30
0.0
 10
-1.71107
 20
-8.49921
 30
0.0
 10
-1.74324
 20
-8.49921
 30
0.0
 10
-1.76789
 20
-8.4914
 30
0.0
 10
-1.7852
 20
-8.47569
 30
0.0
 10
-1.7852
 20
-8.47569
 30
0.0
 10
-1.80241
 20
-8.45998
 30
0.0
 10
-1.81107
 20
-8.43984
 30
0.0
 10
-1.81107
 20
-8.41548
 30
0.0
 10
-1.81107
 20
-8.41548
 30
0.0
 10
-1.81107
 20
-8.40109
 30
0.0
 10
-1.80787
 20
-8.38801
 30
0.0
 10
-1.80128
 20
-8.37616
 30
0.0
 10
-1.80128
 20
-8.37616
 30
0.0
 10
-1.79479
 20
-8.3643
 30
0.0
 10
-1.78623
 20
-8.3548
 30
0.0
 10
-1.77569
 20
-8.34765
 30
0.0
 10
-1.77569
 20
-8.34765
 30
0.0
 10
-1.76506
 20
-8.3405
 30
0.0
 10
-1.75321
 20
-8.33505
 30
0.0
 10
-1.73995
 20
-8.33138
 30
0.0
 10
-1.73995
 20
-8.33138
 30
0.0
 10
-1.73026
 20
-8.32884
 30
0.0
 10
-1.71558
 20
-8.3263
 30
0.0
 10
-1.69592
 20
-8.32395
 30
0.0
 10
-1.69592
 20
-8.32395
 30
0.0
 10
-1.65585
 20
-8.31915
 30
0.0
 10
-1.62631
 20
-8.3135
 30
0.0
 10
-1.6074
 20
-8.30683
 30
0.0
 10
-1.6074
 20
-8.30683
 30
0.0
 10
-1.60721
 20
-8.30005
 30
0.0
 10
-1.60712
 20
-8.29572
 30
0.0
 10
-1.60712
 20
-8.29394
 30
0.0
 10
-1.60712
 20
-8.29394
 30
0.0
 10
-1.60712
 20
-8.27371
 30
0.0
 10
-1.61182
 20
-8.25941
 30
0.0
 10
-1.62123
 20
-8.25123
 30
0.0
 10
-1.62123
 20
-8.25123
 30
0.0
 10
-1.63383
 20
-8.23994
 30
0.0
 10
-1.65274
 20
-8.23439
 30
0.0
 10
-1.67767
 20
-8.23439
 30
0.0
 10
-1.67767
 20
-8.23439
 30
0.0
 10
-1.701
 20
-8.23439
 30
0.0
 10
-1.71822
 20
-8.23843
 30
0.0
 10
-1.72941
 20
-8.24662
 30
0.0
 10
-1.72941
 20
-8.24662
 30
0.0
 10
-1.74051
 20
-8.2548
 30
0.0
 10
-1.7487
 20
-8.26929
 30
0.0
 10
-1.75406
 20
-8.29008
 30
0.0
 10
-1.75406
 20
-8.29008
 30
0.0
 10
-1.75406
 20
-8.29008
 30
0.0
 10
-1.80251
 20
-8.2834
 30
0.0
 10
-1.80251
 20
-8.2834
 30
0.0
 10
-1.80251
 20
-8.2834
 30
0.0
 10
-1.79808
 20
-8.2627
 30
0.0
 10
-1.79084
 20
-8.24587
 30
0.0
 10
-1.78077
 20
-8.23317
 30
0.0
 10
-1.78077
 20
-8.23317
 30
0.0
 10
-1.77071
 20
-8.22037
 30
0.0
 10
-1.75603
 20
-8.21049
 30
0.0
 10
-1.73694
 20
-8.20363
 30
0.0
 10
-1.73694
 20
-8.20363
 30
0.0
 10
-1.71784
 20
-8.19676
 30
0.0
 10
-1.69573
 20
-8.19328
 30
0.0
 10
-1.67052
 20
-8.19328
 30
0.0
 10
-1.67052
 20
-8.19328
 30
0.0
 10
-1.6455
 20
-8.19328
 30
0.0
 10
-1.62527
 20
-8.19629
 30
0.0
 10
-1.60966
 20
-8.20212
 30
0.0
 10
-1.60966
 20
-8.20212
 30
0.0
 10
-1.59404
 20
-8.20805
 30
0.0
 10
-1.58256
 20
-8.21539
 30
0.0
 10
-1.57513
 20
-8.22432
 30
0.0
 10
-1.57513
 20
-8.22432
 30
0.0
 10
-1.56779
 20
-8.23326
 30
0.0
 10
-1.56271
 20
-8.24445
 30
0.0
 10
-1.5597
 20
-8.2581
 30
0.0
 10
-1.5597
 20
-8.2581
 30
0.0
 10
-1.5581
 20
-8.26656
 30
0.0
 10
-1.55726
 20
-8.2818
 30
0.0
 10
-1.55726
 20
-8.30381
 30
0.0
 10
-1.55726
 20
-8.30381
 30
0.0
 10
-1.55726
 20
-8.30381
 30
0.0
 10
-1.55726
 20
-8.36995
 30
0.0
 10
-1.55726
 20
-8.36995
 30
0.0
 10
-1.55726
 20
-8.36995
 30
0.0
 10
-1.55726
 20
-8.41614
 30
0.0
 10
-1.55622
 20
-8.4453
 30
0.0
 10
-1.55406
 20
-8.45744
 30
0.0
 10
-1.55406
 20
-8.45744
 30
0.0
 10
-1.55199
 20
-8.46967
 30
0.0
 10
-1.54775
 20
-8.48143
 30
0.0
 10
-1.54155
 20
-8.49262
 30
0.0
 10
-1.54155
 20
-8.49262
 30
0.0
 10
-1.54155
 20
-8.49262
 30
0.0
 10
-1.59338
 20
-8.49262
 30
0.0
 10
-1.59338
 20
-8.49262
 30
0.0
 10
-1.59338
 20
-8.49262
 30
0.0
 10
-1.59846
 20
-8.48237
 30
0.0
 10
-1.60185
 20
-8.47032
 30
0.0
 10
-1.60326
 20
-8.4565
 30
0.0
  0
SPLINE
  5
9E
330
1F
100
AcDbEntity
  8
Layer 1
 62
   230
100
AcDbSpline
210
0.0
220
0.0
230
1.0
 70
    11
 71
     3
 72
    44
 73
    40
 74
     0
 42
0.0000000001
 43
0.0000000001
 40
0.0
 40
0.0
 40
0.0
 40
0.0
 40
0.0909090909090909
 40
0.0909090909090909
 40
0.0909090909090909
 40
0.0909090909090909
 40
0.1818181818181818
 40
0.1818181818181818
 40
0.1818181818181818
 40
0.1818181818181818
 40
0.2727272727272727
 40
0.2727272727272727
 40
0.2727272727272727
 40
0.2727272727272727
 40
0.3636363636363636
 40
0.3636363636363636
 40
0.3636363636363636
 40
0.3636363636363636
 40
0.4545454545454545
 40
0.4545454545454545
 40
0.4545454545454545
 40
0.4545454545454545
 40
0.5454545454545454
 40
0.5454545454545454
 40
0.5454545454545454
 40
0.5454545454545454
 40
0.6363636363636364
 40
0.6363636363636364
 40
0.6363636363636364
 40
0.6363636363636364
 40
0.7272727272727273
 40
0.7272727272727273
 40
0.7272727272727273
 40
0.7272727272727273
 40
0.8181818181818182
 40
0.8181818181818182
 40
0.8181818181818182
 40
0.8181818181818182
 40
1.0
 40
1.0
 40
1.0
 40
1.0
 10
-1.6074
 20
-8.34568
 30
0.0
 10
-1.62546
 20
-8.35311
 30
0.0
 10
-1.65246
 20
-8.35932
 30
0.0
 10
-1.68839
 20
-8.36449
 30
0.0
 10
-1.68839
 20
-8.36449
 30
0.0
 10
-1.70881
 20
-8.36741
 30
0.0
 10
-1.7233
 20
-8.3707
 30
0.0
 10
-1.73167
 20
-8.37437
 30
0.0
 10
-1.73167
 20
-8.37437
 30
0.0
 10
-1.74013
 20
-8.37804
 30
0.0
 10
-1.74672
 20
-8.3834
 30
0.0
 10
-1.75124
 20
-8.39055
 30
0.0
 10
-1.75124
 20
-8.39055
 30
0.0
 10
-1.75585
 20
-8.39761
 30
0.0
 10
-1.7582
 20
-8.40541
 30
0.0
 10
-1.7582
 20
-8.41407
 30
0.0
 10
-1.7582
 20
-8.41407
 30
0.0
 10
-1.7582
 20
-8.42733
 30
0.0
 10
-1.75312
 20
-8.43834
 30
0.0
 10
-1.74315
 20
-8.44718
 30
0.0
 10
-1.74315
 20
-8.44718
 30
0.0
 10
-1.73317
 20
-8.45593
 30
0.0
 10
-1.7185
 20
-8.46035
 30
0.0
 10
-1.69921
 20
-8.46035
 30
0.0
 10
-1.69921
 20
-8.46035
 30
0.0
 10
-1.68012
 20
-8.46035
 30
0.0
 10
-1.66309
 20
-8.45621
 30
0.0
 10
-1.64823
 20
-8.44784
 30
0.0
 10
-1.64823
 20
-8.44784
 30
0.0
 10
-1.63336
 20
-8.43947
 30
0.0
 10
-1.62235
 20
-8.42799
 30
0.0
 10
-1.61539
 20
-8.4135
 30
0.0
 10
-1.61539
 20
-8.4135
 30
0.0
 10
-1.61003
 20
-8.40231
 30
0.0
 10
-1.6074
 20
-8.38575
 30
0.0
 10
-1.6074
 20
-8.36393
 30
0.0
 10
-1.6074
 20
-8.36393
 30
0.0
 10
-1.6074
 20
-8.36393
 30
0.0
 10
-1.6074
 20
-8.34568
 30
0.0
 10
-1.6074
 20
-8.34568
 30
0.0
  0
SPLINE
  5
9F
330
1F
100
AcDbEntity
  8
Layer 1
 62
   230
100
AcDbSpline
210
0.0
220
0.0
230
1.0
 70
    11
 71
     3
 72
    84
 73
    80
 74
     0
 42
0.0000000001
 43
0.0000000001
 40
0.0
 40
0.0
 40
0.0
 40
0.0
 40
0.0476190476190476
 40
0.0476190476190476
 40
0.0476190476190476
 40
0.0476190476190476
 40
0.0952380952380952
 40
0.0952380952380952
 40
0.0952380952380952
 40
0.0952380952380952
 40
0.1428571428571428
 40
0.1428571428571428
 40
0.1428571428571428
 40
0.1428571428571428
 40
0.1904761904761905
 40
0.1904761904761905
 40
0.1904761904761905
 40
0.1904761904761905
 40
0.2380952380952381
 40
0.2380952380952381
 40
0.2380952380952381
 40
0.2380952380952381
 40
0.2857142857142857
 40
0.2857142857142857
 40
0.2857142857142857
 40
0.2857142857142857
 40
0.3333333333333333
 40
0.3333333333333333
 40
0.3333333333333333
 40
0.3333333333333333
 40
0.3809523809523809
 40
0.3809523809523809
 40
0.3809523809523809
 40
0.3809523809523809
 40
0.4285714285714285
 40
0.4285714285714285
 40
0.4285714285714285
 40
0.4285714285714285
 40
0.4761904761904762
 40
0.4761904761904762
 40
0.4761904761904762
 40
0.4761904761904762
 40
0.5238095238095238
 40
0.5238095238095238
 40
0.5238095238095238
 40
0.5238095238095238
 40
0.5714285714285714
 40
0.5714285714285714
 40
0.5714285714285714
 40
0.5714285714285714
 40
0.6190476190476191
 40
0.6190476190476191
 40
0.6190476190476191
 40
0.6190476190476191
 40
0.6666666666666666
 40
0.6666666666666666
 40
0.6666666666666666
 40
0.6666666666666666
 40
0.7142857142857143
 40
0.7142857142857143
 40
0.7142857142857143
 40
0.7142857142857143
 40
0.7619047619047619
 40
0.7619047619047619
 40
0.7619047619047619
 40
0.7619047619047619
 40
0.8095238095238095
 40
0.8095238095238095
 40
0.8095238095238095
 40
0.8095238095238095
 40
0.8571428571428571
 40
0.8571428571428571
 40
0.8571428571428571
 40
0.8571428571428571
 40
0.9047619047619048
 40
0.9047619047619048
 40
0.9047619047619048
 40
0.9047619047619048
 40
1.0
 40
1.0
 40
1.0
 40
1.0
 10
-1.27794
 20
-8.44822
 30
0.0
 10
-1.27794
 20
-8.44822
 30
0.0
 10
-1.27079
 20
-8.49206
 30
0.0
 10
-1.27079
 20
-8.49206
 30
0.0
 10
-1.27079
 20
-8.49206
 30
0.0
 10
-1.28471
 20
-8.49497
 30
0.0
 10
-1.29722
 20
-8.49648
 30
0.0
 10
-1.30823
 20
-8.49648
 30
0.0
 10
-1.30823
 20
-8.49648
 30
0.0
 10
-1.32629
 20
-8.49648
 30
0.0
 10
-1.34022
 20
-8.49365
 30
0.0
 10
-1.35019
 20
-8.48792
 30
0.0
 10
-1.35019
 20
-8.48792
 30
0.0
 10
-1.36006
 20
-8.48227
 30
0.0
 10
-1.36703
 20
-8.47475
 30
0.0
 10
-1.37107
 20
-8.46543
 30
0.0
 10
-1.37107
 20
-8.46543
 30
0.0
 10
-1.37512
 20
-8.45621
 30
0.0
 10
-1.37719
 20
-8.43665
 30
0.0
 10
-1.37719
 20
-8.40692
 30
0.0
 10
-1.37719
 20
-8.40692
 30
0.0
 10
-1.37719
 20
-8.40692
 30
0.0
 10
-1.37719
 20
-8.23853
 30
0.0
 10
-1.37719
 20
-8.23853
 30
0.0
 10
-1.37719
 20
-8.23853
 30
0.0
 10
-1.37719
 20
-8.23853
 30
0.0
 10
-1.41359
 20
-8.23853
 30
0.0
 10
-1.41359
 20
-8.23853
 30
0.0
 10
-1.41359
 20
-8.23853
 30
0.0
 10
-1.41359
 20
-8.23853
 30
0.0
 10
-1.41359
 20
-8.19996
 30
0.0
 10
-1.41359
 20
-8.19996
 30
0.0
 10
-1.41359
 20
-8.19996
 30
0.0
 10
-1.41359
 20
-8.19996
 30
0.0
 10
-1.37719
 20
-8.19996
 30
0.0
 10
-1.37719
 20
-8.19996
 30
0.0
 10
-1.37719
 20
-8.19996
 30
0.0
 10
-1.37719
 20
-8.19996
 30
0.0
 10
-1.37719
 20
-8.12743
 30
0.0
 10
-1.37719
 20
-8.12743
 30
0.0
 10
-1.37719
 20
-8.12743
 30
0.0
 10
-1.37719
 20
-8.12743
 30
0.0
 10
-1.3278
 20
-8.0977
 30
0.0
 10
-1.3278
 20
-8.0977
 30
0.0
 10
-1.3278
 20
-8.0977
 30
0.0
 10
-1.3278
 20
-8.0977
 30
0.0
 10
-1.3278
 20
-8.19996
 30
0.0
 10
-1.3278
 20
-8.19996
 30
0.0
 10
-1.3278
 20
-8.19996
 30
0.0
 10
-1.3278
 20
-8.19996
 30
0.0
 10
-1.27794
 20
-8.19996
 30
0.0
 10
-1.27794
 20
-8.19996
 30
0.0
 10
-1.27794
 20
-8.19996
 30
0.0
 10
-1.27794
 20
-8.19996
 30
0.0
 10
-1.27794
 20
-8.23853
 30
0.0
 10
-1.27794
 20
-8.23853
 30
0.0
 10
-1.27794
 20
-8.23853
 30
0.0
 10
-1.27794
 20
-8.23853
 30
0.0
 10
-1.3278
 20
-8.23853
 30
0.0
 10
-1.3278
 20
-8.23853
 30
0.0
 10
-1.3278
 20
-8.23853
 30
0.0
 10
-1.3278
 20
-8.23853
 30
0.0
 10
-1.3278
 20
-8.40965
 30
0.0
 10
-1.3278
 20
-8.40965
 30
0.0
 10
-1.3278
 20
-8.40965
 30
0.0
 10
-1.3278
 20
-8.42385
 30
0.0
 10
-1.32695
 20
-8.43288
 30
0.0
 10
-1.32526
 20
-8.43693
 30
0.0
 10
-1.32526
 20
-8.43693
 30
0.0
 10
-1.32347
 20
-8.44097
 30
0.0
 10
-1.32065
 20
-8.44417
 30
0.0
 10
-1.3167
 20
-8.44662
 30
0.0
 10
-1.3167
 20
-8.44662
 30
0.0
 10
-1.31275
 20
-8.44897
 30
0.0
 10
-1.3071
 20
-8.45019
 30
0.0
 10
-1.29976
 20
-8.45019
 30
0.0
 10
-1.29976
 20
-8.45019
 30
0.0
 10
-1.29421
 20
-8.45019
 30
0.0
 10
-1.28697
 20
-8.44953
 30
0.0
 10
-1.27794
 20
-8.44822
 30
0.0
  0
SPLINE
  5
A0
330
1F
100
AcDbEntity
  8
Layer 1
 62
   230
100
AcDbSpline
210
0.0
220
0.0
230
1.0
 70
    11
 71
     3
 72
    96
 73
    92
 74
     0
 42
0.0000000001
 43
0.0000000001
 40
0.0
 40
0.0
 40
0.0
 40
0.0
 40
0.0416666666666667
 40
0.0416666666666667
 40
0.0416666666666667
 40
0.0416666666666667
 40
0.0833333333333333
 40
0.0833333333333333
 40
0.0833333333333333
 40
0.0833333333333333
 40
0.125
 40
0.125
 40
0.125
 40
0.125
 40
0.1666666666666667
 40
0.1666666666666667
 40
0.1666666666666667
 40
0.1666666666666667
 40
0.2083333333333333
 40
0.2083333333333333
 40
0.2083333333333333
 40
0.2083333333333333
 40
0.25
 40
0.25
 40
0.25
 40
0.25
 40
0.2916666666666667
 40
0.2916666666666667
 40
0.2916666666666667
 40
0.2916666666666667
 40
0.3333333333333333
 40
0.3333333333333333
 40
0.3333333333333333
 40
0.3333333333333333
 40
0.375
 40
0.375
 40
0.375
 40
0.375
 40
0.4166666666666667
 40
0.4166666666666667
 40
0.4166666666666667
 40
0.4166666666666667
 40
0.4583333333333333
 40
0.4583333333333333
 40
0.4583333333333333
 40
0.4583333333333333
 40
0.5
 40
0.5
 40
0.5
 40
0.5
 40
0.5416666666666666
 40
0.5416666666666666
 40
0.5416666666666666
 40
0.5416666666666666
 40
0.5833333333333334
 40
0.5833333333333334
 40
0.5833333333333334
 40
0.5833333333333334
 40
0.625
 40
0.625
 40
0.625
 40
0.625
 40
0.6666666666666666
 40
0.6666666666666666
 40
0.6666666666666666
 40
0.6666666666666666
 40
0.7083333333333334
 40
0.7083333333333334
 40
0.7083333333333334
 40
0.7083333333333334
 40
0.75
 40
0.75
 40
0.75
 40
0.75
 40
0.7916666666666666
 40
0.7916666666666666
 40
0.7916666666666666
 40
0.7916666666666666
 40
0.8333333333333334
 40
0.8333333333333334
 40
0.8333333333333334
 40
0.8333333333333334
 40
0.875
 40
0.875
 40
0.875
 40
0.875
 40
0.9166666666666666
 40
0.9166666666666666
 40
0.9166666666666666
 40
0.9166666666666666
 40
1.0
 40
1.0
 40
1.0
 40
1.0
 10
-5.63153
 20
-9.73262
 30
0.0
 10
-5.62836
 20
-9.71757
 30
0.0
 10
-5.62389
 20
-9.70499
 30
0.0
 10
-5.61819
 20
-9.69481
 30
0.0
 10
-5.61819
 20
-9.69481
 30
0.0
 10
-5.61254
 20
-9.68464
 30
0.0
 10
-5.60496
 20
-9.675
 30
0.0
 10
-5.59555
 20
-9.66589
 30
0.0
 10
-5.59555
 20
-9.66589
 30
0.0
 10
-5.58614
 20
-9.65672
 30
0.0
 10
-5.56798
 20
-9.64143
 30
0.0
 10
-5.54111
 20
-9.61997
 30
0.0
 10
-5.54111
 20
-9.61997
 30
0.0
 10
-5.52482
 20
-9.60698
 30
0.0
 10
-5.51371
 20
-9.59739
 30
0.0
 10
-5.50771
 20
-9.59122
 30
0.0
 10
-5.50771
 20
-9.59122
 30
0.0
 10
-5.49913
 20
-9.58222
 30
0.0
 10
-5.49284
 20
-9.57346
 30
0.0
 10
-5.48896
 20
-9.56482
 30
0.0
 10
-5.48896
 20
-9.56482
 30
0.0
 10
-5.48631
 20
-9.559
 30
0.0
 10
-5.48496
 20
-9.55259
 30
0.0
 10
-5.48496
 20
-9.54571
 30
0.0
 10
-5.48496
 20
-9.54571
 30
0.0
 10
-5.48496
 20
-9.53413
 30
0.0
 10
-5.48907
 20
-9.52431
 30
0.0
 10
-5.49731
 20
-9.5162
 30
0.0
 10
-5.49731
 20
-9.5162
 30
0.0
 10
-5.50548
 20
-9.50808
 30
0.0
 10
-5.51559
 20
-9.50403
 30
0.0
 10
-5.52753
 20
-9.50403
 30
0.0
 10
-5.52753
 20
-9.50403
 30
0.0
 10
-5.53934
 20
-9.50403
 30
0.0
 10
-5.54969
 20
-9.50814
 30
0.0
 10
-5.55851
 20
-9.51637
 30
0.0
 10
-5.55851
 20
-9.51637
 30
0.0
 10
-5.56739
 20
-9.52454
 30
0.0
 10
-5.57368
 20
-9.53777
 30
0.0
 10
-5.5775
 20
-9.55588
 30
0.0
 10
-5.5775
 20
-9.55588
 30
0.0
 10
-5.5775
 20
-9.55588
 30
0.0
 10
-5.60796
 20
-9.55141
 30
0.0
 10
-5.60796
 20
-9.55141
 30
0.0
 10
-5.60796
 20
-9.55141
 30
0.0
 10
-5.60496
 20
-9.52901
 30
0.0
 10
-5.59626
 20
-9.51137
 30
0.0
 10
-5.58185
 20
-9.49844
 30
0.0
 10
-5.58185
 20
-9.49844
 30
0.0
 10
-5.56745
 20
-9.4855
 30
0.0
 10
-5.54952
 20
-9.47904
 30
0.0
 10
-5.52805
 20
-9.47904
 30
0.0
 10
-5.52805
 20
-9.47904
 30
0.0
 10
-5.51371
 20
-9.47904
 30
0.0
 10
-5.50066
 20
-9.48204
 30
0.0
 10
-5.48902
 20
-9.48803
 30
0.0
 10
-5.48902
 20
-9.48803
 30
0.0
 10
-5.47737
 20
-9.49397
 30
0.0
 10
-5.46861
 20
-9.50238
 30
0.0
 10
-5.46273
 20
-9.5132
 30
0.0
 10
-5.46273
 20
-9.5132
 30
0.0
 10
-5.45691
 20
-9.52396
 30
0.0
 10
-5.45397
 20
-9.53513
 30
0.0
 10
-5.45397
 20
-9.54659
 30
0.0
 10
-5.45397
 20
-9.54659
 30
0.0
 10
-5.45397
 20
-9.56335
 30
0.0
 10
-5.45991
 20
-9.57952
 30
0.0
 10
-5.47191
 20
-9.59498
 30
0.0
 10
-5.47191
 20
-9.59498
 30
0.0
 10
-5.47926
 20
-9.60462
 30
0.0
 10
-5.50083
 20
-9.62361
 30
0.0
 10
-5.53664
 20
-9.65201
 30
0.0
 10
-5.53664
 20
-9.65201
 30
0.0
 10
-5.55204
 20
-9.66418
 30
0.0
 10
-5.56351
 20
-9.67418
 30
0.0
 10
-5.57103
 20
-9.682
 30
0.0
 10
-5.57103
 20
-9.682
 30
0.0
 10
-5.57856
 20
-9.68976
 30
0.0
 10
-5.5842
 20
-9.69711
 30
0.0
 10
-5.58797
 20
-9.70405
 30
0.0
 10
-5.58797
 20
-9.70405
 30
0.0
 10
-5.58797
 20
-9.70405
 30
0.0
 10
-5.47496
 20
-9.70405
 30
0.0
 10
-5.47496
 20
-9.70405
 30
0.0
 10
-5.47496
 20
-9.70405
 30
0.0
 10
-5.47496
 20
-9.70405
 30
0.0
 10
-5.48102
 20
-9.73262
 30
0.0
 10
-5.48102
 20
-9.73262
 30
0.0
 10
-5.48102
 20
-9.73262
 30
0.0
 10
-5.48102
 20
-9.73262
 30
0.0
 10
-5.63153
 20
-9.73262
 30
0.0
 10
-5.63153
 20
-9.73262
 30
0.0
  0
SPLINE
  5
A1
330
1F
100
AcDbEntity
  8
Layer 1
 62
   230
100
AcDbSpline
210
0.0
220
0.0
230
1.0
 70
    11
 71
     3
 72
    40
 73
    36
 74
     0
 42
0.0000000001
 43
0.0000000001
 40
0.0
 40
0.0
 40
0.0
 40
0.0
 40
0.1
 40
0.1
 40
0.1
 40
0.1
 40
0.2
 40
0.2
 40
0.2
 40
0.2
 40
0.3
 40
0.3
 40
0.3
 40
0.3
 40
0.4
 40
0.4
 40
0.4
 40
0.4
 40
0.5
 40
0.5
 40
0.5
 40
0.5
 40
0.6
 40
0.6
 40
0.6
 40
0.6
 40
0.7
 40
0.7
 40
0.7
 40
0.7
 40
0.8
 40
0.8
 40
0.8
 40
0.8
 40
1.0
 40
1.0
 40
1.0
 40
1.0
 10
-5.37113
 20
-9.73262
 30
0.0
 10
-5.37113
 20
-9.73262
 30
0.0
 10
-5.33115
 20
-9.54195
 30
0.0
 10
-5.33115
 20
-9.54195
 30
0.0
 10
-5.33115
 20
-9.54195
 30
0.0
 10
-5.34838
 20
-9.55547
 30
0.0
 10
-5.3726
 20
-9.56635
 30
0.0
 10
-5.40382
 20
-9.57452
 30
0.0
 10
-5.40382
 20
-9.57452
 30
0.0
 10
-5.40382
 20
-9.57452
 30
0.0
 10
-5.398
 20
-9.54624
 30
0.0
 10
-5.398
 20
-9.54624
 30
0.0
 10
-5.398
 20
-9.54624
 30
0.0
 10
-5.38248
 20
-9.54007
 30
0.0
 10
-5.36719
 20
-9.53195
 30
0.0
 10
-5.35208
 20
-9.52196
 30
0.0
 10
-5.35208
 20
-9.52196
 30
0.0
 10
-5.33697
 20
-9.51196
 30
0.0
 10
-5.32562
 20
-9.50326
 30
0.0
 10
-5.31804
 20
-9.49579
 30
0.0
 10
-5.31804
 20
-9.49579
 30
0.0
 10
-5.31345
 20
-9.49121
 30
0.0
 10
-5.3091
 20
-9.48562
 30
0.0
 10
-5.30499
 20
-9.47904
 30
0.0
 10
-5.30499
 20
-9.47904
 30
0.0
 10
-5.30499
 20
-9.47904
 30
0.0
 10
-5.28688
 20
-9.47904
 30
0.0
 10
-5.28688
 20
-9.47904
 30
0.0
 10
-5.28688
 20
-9.47904
 30
0.0
 10
-5.28688
 20
-9.47904
 30
0.0
 10
-5.33973
 20
-9.73262
 30
0.0
 10
-5.33973
 20
-9.73262
 30
0.0
 10
-5.33973
 20
-9.73262
 30
0.0
 10
-5.33973
 20
-9.73262
 30
0.0
 10
-5.37113
 20
-9.73262
 30
0.0
 10
-5.37113
 20
-9.73262
 30
0.0
  0
SPLINE
  5
A2
330
1F
100
AcDbEntity
  8
Layer 1
 62
   230
100
AcDbSpline
210
0.0
220
0.0
230
1.0
 70
    11
 71
     3
 72
    20
 73
    16
 74
     0
 42
0.0000000001
 43
0.0000000001
 40
0.0
 40
0.0
 40
0.0
 40
0.0
 40
0.2
 40
0.2
 40
0.2
 40
0.2
 40
0.4
 40
0.4
 40
0.4
 40
0.4
 40
0.6
 40
0.6
 40
0.6
 40
0.6
 40
1.0
 40
1.0
 40
1.0
 40
1.0
 10
-5.24348
 20
-9.65683
 30
0.0
 10
-5.24348
 20
-9.65683
 30
0.0
 10
-5.2369
 20
-9.62567
 30
0.0
 10
-5.2369
 20
-9.62567
 30
0.0
 10
-5.2369
 20
-9.62567
 30
0.0
 10
-5.2369
 20
-9.62567
 30
0.0
 10
-5.14183
 20
-9.62567
 30
0.0
 10
-5.14183
 20
-9.62567
 30
0.0
 10
-5.14183
 20
-9.62567
 30
0.0
 10
-5.14183
 20
-9.62567
 30
0.0
 10
-5.14824
 20
-9.65683
 30
0.0
 10
-5.14824
 20
-9.65683
 30
0.0
 10
-5.14824
 20
-9.65683
 30
0.0
 10
-5.14824
 20
-9.65683
 30
0.0
 10
-5.24348
 20
-9.65683
 30
0.0
 10
-5.24348
 20
-9.65683
 30
0.0
  0
SPLINE
  5
A3
330
1F
100
AcDbEntity
  8
Layer 1
 62
   230
100
AcDbSpline
210
0.0
220
0.0
230
1.0
 70
    11
 71
     3
 72
    80
 73
    76
 74
     0
 42
0.0000000001
 43
0.0000000001
 40
0.0
 40
0.0
 40
0.0
 40
0.0
 40
0.05
 40
0.05
 40
0.05
 40
0.05
 40
0.1
 40
0.1
 40
0.1
 40
0.1
 40
0.15
 40
0.15
 40
0.15
 40
0.15
 40
0.2
 40
0.2
 40
0.2
 40
0.2
 40
0.25
 40
0.25
 40
0.25
 40
0.25
 40
0.3
 40
0.3
 40
0.3
 40
0.3
 40
0.35
 40
0.35
 40
0.35
 40
0.35
 40
0.4
 40
0.4
 40
0.4
 40
0.4
 40
0.45
 40
0.45
 40
0.45
 40
0.45
 40
0.5
 40
0.5
 40
0.5
 40
0.5
 40
0.55
 40
0.55
 40
0.55
 40
0.55
 40
0.6
 40
0.6
 40
0.6
 40
0.6
 40
0.65
 40
0.65
 40
0.65
 40
0.65
 40
0.7
 40
0.7
 40
0.7
 40
0.7
 40
0.75
 40
0.75
 40
0.75
 40
0.75
 40
0.8
 40
0.8
 40
0.8
 40
0.8
 40
0.85
 40
0.85
 40
0.85
 40
0.85
 40
0.9
 40
0.9
 40
0.9
 40
0.9
 40
1.0
 40
1.0
 40
1.0
 40
1.0
 10
-5.13066
 20
-9.73262
 30
0.0
 10
-5.13066
 20
-9.73262
 30
0.0
 10
-5.07792
 20
-9.4801
 30
0.0
 10
-5.07792
 20
-9.4801
 30
0.0
 10
-5.07792
 20
-9.4801
 30
0.0
 10
-5.07792
 20
-9.4801
 30
0.0
 10
-5.04676
 20
-9.4801
 30
0.0
 10
-5.04676
 20
-9.4801
 30
0.0
 10
-5.04676
 20
-9.4801
 30
0.0
 10
-5.04676
 20
-9.4801
 30
0.0
 10
-5.06693
 20
-9.57705
 30
0.0
 10
-5.06693
 20
-9.57705
 30
0.0
 10
-5.06693
 20
-9.57705
 30
0.0
 10
-5.05534
 20
-9.56582
 30
0.0
 10
-5.04453
 20
-9.55776
 30
0.0
 10
-5.03453
 20
-9.55288
 30
0.0
 10
-5.03453
 20
-9.55288
 30
0.0
 10
-5.02453
 20
-9.548
 30
0.0
 10
-5.01425
 20
-9.54553
 30
0.0
 10
-5.00372
 20
-9.54553
 30
0.0
 10
-5.00372
 20
-9.54553
 30
0.0
 10
-4.98855
 20
-9.54553
 30
0.0
 10
-4.97679
 20
-9.54953
 30
0.0
 10
-4.96839
 20
-9.55753
 30
0.0
 10
-4.96839
 20
-9.55753
 30
0.0
 10
-4.95998
 20
-9.56552
 30
0.0
 10
-4.9558
 20
-9.57605
 30
0.0
 10
-4.9558
 20
-9.58916
 30
0.0
 10
-4.9558
 20
-9.58916
 30
0.0
 10
-4.9558
 20
-9.59557
 30
0.0
 10
-4.95763
 20
-9.60739
 30
0.0
 10
-4.96133
 20
-9.62461
 30
0.0
 10
-4.96133
 20
-9.62461
 30
0.0
 10
-4.96133
 20
-9.62461
 30
0.0
 10
-4.98391
 20
-9.73262
 30
0.0
 10
-4.98391
 20
-9.73262
 30
0.0
 10
-4.98391
 20
-9.73262
 30
0.0
 10
-4.98391
 20
-9.73262
 30
0.0
 10
-5.01507
 20
-9.73262
 30
0.0
 10
-5.01507
 20
-9.73262
 30
0.0
 10
-5.01507
 20
-9.73262
 30
0.0
 10
-5.01507
 20
-9.73262
 30
0.0
 10
-4.99179
 20
-9.62185
 30
0.0
 10
-4.99179
 20
-9.62185
 30
0.0
 10
-4.99179
 20
-9.62185
 30
0.0
 10
-4.98849
 20
-9.6058
 30
0.0
 10
-4.98679
 20
-9.59569
 30
0.0
 10
-4.98679
 20
-9.59157
 30
0.0
 10
-4.98679
 20
-9.59157
 30
0.0
 10
-4.98679
 20
-9.58557
 30
0.0
 10
-4.98891
 20
-9.58069
 30
0.0
 10
-4.99302
 20
-9.57693
 30
0.0
 10
-4.99302
 20
-9.57693
 30
0.0
 10
-4.99714
 20
-9.57311
 30
0.0
 10
-5.00313
 20
-9.57123
 30
0.0
 10
-5.01095
 20
-9.57123
 30
0.0
 10
-5.01095
 20
-9.57123
 30
0.0
 10
-5.02218
 20
-9.57123
 30
0.0
 10
-5.03294
 20
-9.57417
 30
0.0
 10
-5.04311
 20
-9.58011
 30
0.0
 10
-5.04311
 20
-9.58011
 30
0.0
 10
-5.05334
 20
-9.58599
 30
0.0
 10
-5.0614
 20
-9.5941
 30
0.0
 10
-5.06716
 20
-9.60439
 30
0.0
 10
-5.06716
 20
-9.60439
 30
0.0
 10
-5.07298
 20
-9.61468
 30
0.0
 10
-5.07827
 20
-9.6312
 30
0.0
 10
-5.08309
 20
-9.65407
 30
0.0
 10
-5.08309
 20
-9.65407
 30
0.0
 10
-5.08309
 20
-9.65407
 30
0.0
 10
-5.09944
 20
-9.73262
 30
0.0
 10
-5.09944
 20
-9.73262
 30
0.0
 10
-5.09944
 20
-9.73262
 30
0.0
 10
-5.09944
 20
-9.73262
 30
0.0
 10
-5.13066
 20
-9.73262
 30
0.0
 10
-5.13066
 20
-9.73262
 30
0.0
  0
SPLINE
  5
A4
330
1F
100
AcDbEntity
  8
Layer 1
 62
   230
100
AcDbSpline
210
0.0
220
0.0
230
1.0
 70
    11
 71
     3
 72
    44
 73
    40
 74
     0
 42
0.0000000001
 43
0.0000000001
 40
0.0
 40
0.0
 40
0.0
 40
0.0
 40
0.0909090909090909
 40
0.0909090909090909
 40
0.0909090909090909
 40
0.0909090909090909
 40
0.1818181818181818
 40
0.1818181818181818
 40
0.1818181818181818
 40
0.1818181818181818
 40
0.2727272727272727
 40
0.2727272727272727
 40
0.2727272727272727
 40
0.2727272727272727
 40
0.3636363636363636
 40
0.3636363636363636
 40
0.3636363636363636
 40
0.3636363636363636
 40
0.4545454545454545
 40
0.4545454545454545
 40
0.4545454545454545
 40
0.4545454545454545
 40
0.5454545454545454
 40
0.5454545454545454
 40
0.5454545454545454
 40
0.5454545454545454
 40
0.6363636363636364
 40
0.6363636363636364
 40
0.6363636363636364
 40
0.6363636363636364
 40
0.7272727272727273
 40
0.7272727272727273
 40
0.7272727272727273
 40
0.7272727272727273
 40
0.8181818181818182
 40
0.8181818181818182
 40
0.8181818181818182
 40
0.8181818181818182
 40
1.0
 40
1.0
 40
1.0
 40
1.0
 10
-4.92893
 20
-9.66318
 30
0.0
 10
-4.92893
 20
-9.62749
 30
0.0
 10
-4.91841
 20
-9.59792
 30
0.0
 10
-4.89742
 20
-9.57452
 30
0.0
 10
-4.89742
 20
-9.57452
 30
0.0
 10
-4.88007
 20
-9.55518
 30
0.0
 10
-4.85732
 20
-9.54553
 30
0.0
 10
-4.82922
 20
-9.54553
 30
0.0
 10
-4.82922
 20
-9.54553
 30
0.0
 10
-4.80717
 20
-9.54553
 30
0.0
 10
-4.78935
 20
-9.55247
 30
0.0
 10
-4.77589
 20
-9.56623
 30
0.0
 10
-4.77589
 20
-9.56623
 30
0.0
 10
-4.76243
 20
-9.57999
 30
0.0
 10
-4.75566
 20
-9.59863
 30
0.0
 10
-4.75566
 20
-9.62203
 30
0.0
 10
-4.75566
 20
-9.62203
 30
0.0
 10
-4.75566
 20
-9.64308
 30
0.0
 10
-4.7599
 20
-9.6626
 30
0.0
 10
-4.76842
 20
-9.6807
 30
0.0
 10
-4.76842
 20
-9.6807
 30
0.0
 10
-4.77689
 20
-9.69875
 30
0.0
 10
-4.789
 20
-9.71263
 30
0.0
 10
-4.80464
 20
-9.72227
 30
0.0
 10
-4.80464
 20
-9.72227
 30
0.0
 10
-4.82034
 20
-9.73191
 30
0.0
 10
-4.83686
 20
-9.73674
 30
0.0
 10
-4.8542
 20
-9.73674
 30
0.0
 10
-4.8542
 20
-9.73674
 30
0.0
 10
-4.86843
 20
-9.73674
 30
0.0
 10
-4.88137
 20
-9.73374
 30
0.0
 10
-4.89301
 20
-9.72762
 30
0.0
 10
-4.89301
 20
-9.72762
 30
0.0
 10
-4.90465
 20
-9.72157
 30
0.0
 10
-4.91359
 20
-9.71292
 30
0.0
 10
-4.9197
 20
-9.70181
 30
0.0
 10
-4.9197
 20
-9.70181
 30
0.0
 10
-4.92588
 20
-9.69064
 30
0.0
 10
-4.92893
 20
-9.67776
 30
0.0
 10
-4.92893
 20
-9.66318
 30
0.0
  0
SPLINE
  5
A5
330
1F
100
AcDbEntity
  8
Layer 1
 62
   230
100
AcDbSpline
210
0.0
220
0.0
230
1.0
 70
    11
 71
     3
 72
    56
 73
    52
 74
     0
 42
0.0000000001
 43
0.0000000001
 40
0.0
 40
0.0
 40
0.0
 40
0.0
 40
0.0714285714285714
 40
0.0714285714285714
 40
0.0714285714285714
 40
0.0714285714285714
 40
0.1428571428571428
 40
0.1428571428571428
 40
0.1428571428571428
 40
0.1428571428571428
 40
0.2142857142857143
 40
0.2142857142857143
 40
0.2142857142857143
 40
0.2142857142857143
 40
0.2857142857142857
 40
0.2857142857142857
 40
0.2857142857142857
 40
0.2857142857142857
 40
0.3571428571428572
 40
0.3571428571428572
 40
0.3571428571428572
 40
0.3571428571428572
 40
0.4285714285714285
 40
0.4285714285714285
 40
0.4285714285714285
 40
0.4285714285714285
 40
0.5
 40
0.5
 40
0.5
 40
0.5
 40
0.5714285714285714
 40
0.5714285714285714
 40
0.5714285714285714
 40
0.5714285714285714
 40
0.6428571428571429
 40
0.6428571428571429
 40
0.6428571428571429
 40
0.6428571428571429
 40
0.7142857142857143
 40
0.7142857142857143
 40
0.7142857142857143
 40
0.7142857142857143
 40
0.7857142857142857
 40
0.7857142857142857
 40
0.7857142857142857
 40
0.7857142857142857
 40
0.8571428571428571
 40
0.8571428571428571
 40
0.8571428571428571
 40
0.8571428571428571
 40
1.0
 40
1.0
 40
1.0
 40
1.0
 10
-4.89777
 20
-9.66013
 30
0.0
 10
-4.89777
 20
-9.67735
 30
0.0
 10
-4.8936
 20
-9.69041
 30
0.0
 10
-4.88537
 20
-9.69928
 30
0.0
 10
-4.88537
 20
-9.69928
 30
0.0
 10
-4.87708
 20
-9.70816
 30
0.0
 10
-4.86655
 20
-9.71263
 30
0.0
 10
-4.85385
 20
-9.71263
 30
0.0
 10
-4.85385
 20
-9.71263
 30
0.0
 10
-4.84715
 20
-9.71263
 30
0.0
 10
-4.84056
 20
-9.71128
 30
0.0
 10
-4.83404
 20
-9.70857
 30
0.0
 10
-4.83404
 20
-9.70857
 30
0.0
 10
-4.82745
 20
-9.70587
 30
0.0
 10
-4.8214
 20
-9.70181
 30
0.0
 10
-4.81575
 20
-9.69628
 30
0.0
 10
-4.81575
 20
-9.69628
 30
0.0
 10
-4.81017
 20
-9.69076
 30
0.0
 10
-4.80535
 20
-9.68447
 30
0.0
 10
-4.80141
 20
-9.67741
 30
0.0
 10
-4.80141
 20
-9.67741
 30
0.0
 10
-4.79741
 20
-9.67036
 30
0.0
 10
-4.79423
 20
-9.66277
 30
0.0
 10
-4.79182
 20
-9.6546
 30
0.0
 10
-4.79182
 20
-9.6546
 30
0.0
 10
-4.78824
 20
-9.64319
 30
0.0
 10
-4.78647
 20
-9.63232
 30
0.0
 10
-4.78647
 20
-9.62185
 30
0.0
 10
-4.78647
 20
-9.62185
 30
0.0
 10
-4.78647
 20
-9.60533
 30
0.0
 10
-4.79065
 20
-9.59251
 30
0.0
 10
-4.799
 20
-9.58334
 30
0.0
 10
-4.799
 20
-9.58334
 30
0.0
 10
-4.80729
 20
-9.57423
 30
0.0
 10
-4.81775
 20
-9.5697
 30
0.0
 10
-4.83039
 20
-9.5697
 30
0.0
 10
-4.83039
 20
-9.5697
 30
0.0
 10
-4.84015
 20
-9.5697
 30
0.0
 10
-4.84909
 20
-9.57199
 30
0.0
 10
-4.85709
 20
-9.57664
 30
0.0
 10
-4.85709
 20
-9.57664
 30
0.0
 10
-4.86514
 20
-9.58128
 30
0.0
 10
-4.87243
 20
-9.5881
 30
0.0
 10
-4.8789
 20
-9.59704
 30
0.0
 10
-4.8789
 20
-9.59704
 30
0.0
 10
-4.88537
 20
-9.60603
 30
0.0
 10
-4.89013
 20
-9.61644
 30
0.0
 10
-4.89319
 20
-9.62832
 30
0.0
 10
-4.89319
 20
-9.62832
 30
0.0
 10
-4.89624
 20
-9.64019
 30
0.0
 10
-4.89777
 20
-9.65078
 30
0.0
 10
-4.89777
 20
-9.66013
 30
0.0
  0
SPLINE
  5
A6
330
1F
100
AcDbEntity
  8
Layer 1
 62
   230
100
AcDbSpline
210
0.0
220
0.0
230
1.0
 70
    11
 71
     3
 72
    20
 73
    16
 74
     0
 42
0.0000000001
 43
0.0000000001
 40
0.0
 40
0.0
 40
0.0
 40
0.0
 40
0.2
 40
0.2
 40
0.2
 40
0.2
 40
0.4
 40
0.4
 40
0.4
 40
0.4
 40
0.6
 40
0.6
 40
0.6
 40
0.6
 40
1.0
 40
1.0
 40
1.0
 40
1.0
 10
-4.74067
 20
-9.73262
 30
0.0
 10
-4.74067
 20
-9.73262
 30
0.0
 10
-4.68793
 20
-9.4801
 30
0.0
 10
-4.68793
 20
-9.4801
 30
0.0
 10
-4.68793
 20
-9.4801
 30
0.0
 10
-4.68793
 20
-9.4801
 30
0.0
 10
-4.65677
 20
-9.4801
 30
0.0
 10
-4.65677
 20
-9.4801
 30
0.0
 10
-4.65677
 20
-9.4801
 30
0.0
 10
-4.65677
 20
-9.4801
 30
0.0
 10
-4.70951
 20
-9.73262
 30
0.0
 10
-4.70951
 20
-9.73262
 30
0.0
 10
-4.70951
 20
-9.73262
 30
0.0
 10
-4.70951
 20
-9.73262
 30
0.0
 10
-4.74067
 20
-9.73262
 30
0.0
 10
-4.74067
 20
-9.73262
 30
0.0
  0
SPLINE
  5
A7
330
1F
100
AcDbEntity
  8
Layer 1
 62
   230
100
AcDbSpline
210
0.0
220
0.0
230
1.0
 70
    11
 71
     3
 72
    76
 73
    72
 74
     0
 42
0.0000000001
 43
0.0000000001
 40
0.0
 40
0.0
 40
0.0
 40
0.0
 40
0.0526315789473684
 40
0.0526315789473684
 40
0.0526315789473684
 40
0.0526315789473684
 40
0.1052631578947368
 40
0.1052631578947368
 40
0.1052631578947368
 40
0.1052631578947368
 40
0.1578947368421053
 40
0.1578947368421053
 40
0.1578947368421053
 40
0.1578947368421053
 40
0.2105263157894737
 40
0.2105263157894737
 40
0.2105263157894737
 40
0.2105263157894737
 40
0.2631578947368421
 40
0.2631578947368421
 40
0.2631578947368421
 40
0.2631578947368421
 40
0.3157894736842105
 40
0.3157894736842105
 40
0.3157894736842105
 40
0.3157894736842105
 40
0.3684210526315789
 40
0.3684210526315789
 40
0.3684210526315789
 40
0.3684210526315789
 40
0.4210526315789473
 40
0.4210526315789473
 40
0.4210526315789473
 40
0.4210526315789473
 40
0.4736842105263158
 40
0.4736842105263158
 40
0.4736842105263158
 40
0.4736842105263158
 40
0.5263157894736842
 40
0.5263157894736842
 40
0.5263157894736842
 40
0.5263157894736842
 40
0.5789473684210527
 40
0.5789473684210527
 40
0.5789473684210527
 40
0.5789473684210527
 40
0.631578947368421
 40
0.631578947368421
 40
0.631578947368421
 40
0.631578947368421
 40
0.6842105263157895
 40
0.6842105263157895
 40
0.6842105263157895
 40
0.6842105263157895
 40
0.7368421052631579
 40
0.7368421052631579
 40
0.7368421052631579
 40
0.7368421052631579
 40
0.7894736842105263
 40
0.7894736842105263
 40
0.7894736842105263
 40
0.7894736842105263
 40
0.8421052631578947
 40
0.8421052631578947
 40
0.8421052631578947
 40
0.8421052631578947
 40
0.8947368421052632
 40
0.8947368421052632
 40
0.8947368421052632
 40
0.8947368421052632
 40
1.0
 40
1.0
 40
1.0
 40
1.0
 10
-4.52554
 20
-9.67041
 30
0.0
 10
-4.52554
 20
-9.67041
 30
0.0
 10
-4.49521
 20
-9.67353
 30
0.0
 10
-4.49521
 20
-9.67353
 30
0.0
 10
-4.49521
 20
-9.67353
 30
0.0
 10
-4.49956
 20
-9.68858
 30
0.0
 10
-4.50961
 20
-9.70287
 30
0.0
 10
-4.52525
 20
-9.71645
 30
0.0
 10
-4.52525
 20
-9.71645
 30
0.0
 10
-4.54095
 20
-9.72997
 30
0.0
 10
-4.55964
 20
-9.73674
 30
0.0
 10
-4.58134
 20
-9.73674
 30
0.0
 10
-4.58134
 20
-9.73674
 30
0.0
 10
-4.59486
 20
-9.73674
 30
0.0
 10
-4.60733
 20
-9.73362
 30
0.0
 10
-4.61862
 20
-9.72739
 30
0.0
 10
-4.61862
 20
-9.72739
 30
0.0
 10
-4.6299
 20
-9.7211
 30
0.0
 10
-4.63855
 20
-9.71198
 30
0.0
 10
-4.64449
 20
-9.70005
 30
0.0
 10
-4.64449
 20
-9.70005
 30
0.0
 10
-4.65037
 20
-9.68811
 30
0.0
 10
-4.6533
 20
-9.67453
 30
0.0
 10
-4.6533
 20
-9.65924
 30
0.0
 10
-4.6533
 20
-9.65924
 30
0.0
 10
-4.6533
 20
-9.63925
 30
0.0
 10
-4.64872
 20
-9.61991
 30
0.0
 10
-4.63949
 20
-9.6011
 30
0.0
 10
-4.63949
 20
-9.6011
 30
0.0
 10
-4.6302
 20
-9.58234
 30
0.0
 10
-4.61826
 20
-9.56841
 30
0.0
 10
-4.60356
 20
-9.55923
 30
0.0
 10
-4.60356
 20
-9.55923
 30
0.0
 10
-4.58887
 20
-9.55012
 30
0.0
 10
-4.57293
 20
-9.54553
 30
0.0
 10
-4.55582
 20
-9.54553
 30
0.0
 10
-4.55582
 20
-9.54553
 30
0.0
 10
-4.53401
 20
-9.54553
 30
0.0
 10
-4.51661
 20
-9.55235
 30
0.0
 10
-4.50355
 20
-9.56588
 30
0.0
 10
-4.50355
 20
-9.56588
 30
0.0
 10
-4.4905
 20
-9.57946
 30
0.0
 10
-4.48403
 20
-9.59792
 30
0.0
 10
-4.48403
 20
-9.62132
 30
0.0
 10
-4.48403
 20
-9.62132
 30
0.0
 10
-4.48403
 20
-9.63032
 30
0.0
 10
-4.4848
 20
-9.63949
 30
0.0
 10
-4.48644
 20
-9.6489
 30
0.0
 10
-4.48644
 20
-9.6489
 30
0.0
 10
-4.48644
 20
-9.6489
 30
0.0
 10
-4.62114
 20
-9.6489
 30
0.0
 10
-4.62114
 20
-9.6489
 30
0.0
 10
-4.62114
 20
-9.6489
 30
0.0
 10
-4.62156
 20
-9.65248
 30
0.0
 10
-4.62179
 20
-9.65566
 30
0.0
 10
-4.62179
 20
-9.65854
 30
0.0
 10
-4.62179
 20
-9.65854
 30
0.0
 10
-4.62179
 20
-9.67565
 30
0.0
 10
-4.61785
 20
-9.6887
 30
0.0
 10
-4.61003
 20
-9.69775
 30
0.0
 10
-4.61003
 20
-9.69775
 30
0.0
 10
-4.60215
 20
-9.70675
 30
0.0
 10
-4.59251
 20
-9.71128
 30
0.0
 10
-4.58116
 20
-9.71128
 30
0.0
 10
-4.58116
 20
-9.71128
 30
0.0
 10
-4.57046
 20
-9.71128
 30
0.0
 10
-4.56
 20
-9.70775
 30
0.0
 10
-4.54965
 20
-9.70075
 30
0.0
 10
-4.54965
 20
-9.70075
 30
0.0
 10
-4.5393
 20
-9.69376
 30
0.0
 10
-4.53125
 20
-9.68364
 30
0.0
 10
-4.52554
 20
-9.67041
 30
0.0
  0
SPLINE
  5
A8
330
1F
100
AcDbEntity
  8
Layer 1
 62
   230
100
AcDbSpline
210
0.0
220
0.0
230
1.0
 70
    11
 71
     3
 72
    28
 73
    24
 74
     0
 42
0.0000000001
 43
0.0000000001
 40
0.0
 40
0.0
 40
0.0
 40
0.0
 40
0.1428571428571428
 40
0.1428571428571428
 40
0.1428571428571428
 40
0.1428571428571428
 40
0.2857142857142857
 40
0.2857142857142857
 40
0.2857142857142857
 40
0.2857142857142857
 40
0.4285714285714285
 40
0.4285714285714285
 40
0.4285714285714285
 40
0.4285714285714285
 40
0.5714285714285714
 40
0.5714285714285714
 40
0.5714285714285714
 40
0.5714285714285714
 40
0.7142857142857143
 40
0.7142857142857143
 40
0.7142857142857143
 40
0.7142857142857143
 40
1.0
 40
1.0
 40
1.0
 40
1.0
 10
-4.61615
 20
-9.62514
 30
0.0
 10
-4.61615
 20
-9.62514
 30
0.0
 10
-4.51349
 20
-9.62514
 30
0.0
 10
-4.51349
 20
-9.62514
 30
0.0
 10
-4.51349
 20
-9.62514
 30
0.0
 10
-4.51337
 20
-9.62191
 30
0.0
 10
-4.51331
 20
-9.61962
 30
0.0
 10
-4.51331
 20
-9.61826
 30
0.0
 10
-4.51331
 20
-9.61826
 30
0.0
 10
-4.51331
 20
-9.60262
 30
0.0
 10
-4.51719
 20
-9.59063
 30
0.0
 10
-4.52501
 20
-9.58234
 30
0.0
 10
-4.52501
 20
-9.58234
 30
0.0
 10
-4.53283
 20
-9.57399
 30
0.0
 10
-4.54289
 20
-9.56982
 30
0.0
 10
-4.55518
 20
-9.56982
 30
0.0
 10
-4.55518
 20
-9.56982
 30
0.0
 10
-4.56846
 20
-9.56982
 30
0.0
 10
-4.58063
 20
-9.57446
 30
0.0
 10
-4.59157
 20
-9.58363
 30
0.0
 10
-4.59157
 20
-9.58363
 30
0.0
 10
-4.60256
 20
-9.59281
 30
0.0
 10
-4.61074
 20
-9.60662
 30
0.0
 10
-4.61615
 20
-9.62514
 30
0.0
  0
SPLINE
  5
A9
330
1F
100
AcDbEntity
  8
Layer 1
 62
   230
100
AcDbSpline
210
0.0
220
0.0
230
1.0
 70
    11
 71
     3
 72
    52
 73
    48
 74
     0
 42
0.0000000001
 43
0.0000000001
 40
0.0
 40
0.0
 40
0.0
 40
0.0
 40
0.0769230769230769
 40
0.0769230769230769
 40
0.0769230769230769
 40
0.0769230769230769
 40
0.1538461538461539
 40
0.1538461538461539
 40
0.1538461538461539
 40
0.1538461538461539
 40
0.2307692307692308
 40
0.2307692307692308
 40
0.2307692307692308
 40
0.2307692307692308
 40
0.3076923076923077
 40
0.3076923076923077
 40
0.3076923076923077
 40
0.3076923076923077
 40
0.3846153846153846
 40
0.3846153846153846
 40
0.3846153846153846
 40
0.3846153846153846
 40
0.4615384615384616
 40
0.4615384615384616
 40
0.4615384615384616
 40
0.4615384615384616
 40
0.5384615384615384
 40
0.5384615384615384
 40
0.5384615384615384
 40
0.5384615384615384
 40
0.6153846153846154
 40
0.6153846153846154
 40
0.6153846153846154
 40
0.6153846153846154
 40
0.6923076923076923
 40
0.6923076923076923
 40
0.6923076923076923
 40
0.6923076923076923
 40
0.7692307692307693
 40
0.7692307692307693
 40
0.7692307692307693
 40
0.7692307692307693
 40
0.8461538461538461
 40
0.8461538461538461
 40
0.8461538461538461
 40
0.8461538461538461
 40
1.0
 40
1.0
 40
1.0
 40
1.0
 10
-4.24233
 20
-9.7061
 30
0.0
 10
-4.26014
 20
-9.72651
 30
0.0
 10
-4.27872
 20
-9.73674
 30
0.0
 10
-4.29812
 20
-9.73674
 30
0.0
 10
-4.29812
 20
-9.73674
 30
0.0
 10
-4.31547
 20
-9.73674
 30
0.0
 10
-4.32993
 20
-9.73033
 30
0.0
 10
-4.34146
 20
-9.71757
 30
0.0
 10
-4.34146
 20
-9.71757
 30
0.0
 10
-4.35298
 20
-9.70475
 30
0.0
 10
-4.3588
 20
-9.68617
 30
0.0
 10
-4.3588
 20
-9.66183
 30
0.0
 10
-4.3588
 20
-9.66183
 30
0.0
 10
-4.3588
 20
-9.63955
 30
0.0
 10
-4.35421
 20
-9.6192
 30
0.0
 10
-4.3451
 20
-9.60074
 30
0.0
 10
-4.3451
 20
-9.60074
 30
0.0
 10
-4.33593
 20
-9.58234
 30
0.0
 10
-4.32452
 20
-9.56852
 30
0.0
 10
-4.31082
 20
-9.55935
 30
0.0
 10
-4.31082
 20
-9.55935
 30
0.0
 10
-4.29707
 20
-9.55012
 30
0.0
 10
-4.28331
 20
-9.54553
 30
0.0
 10
-4.26955
 20
-9.54553
 30
0.0
 10
-4.26955
 20
-9.54553
 30
0.0
 10
-4.2468
 20
-9.54553
 30
0.0
 10
-4.22963
 20
-9.55653
 30
0.0
 10
-4.21805
 20
-9.57846
 30
0.0
 10
-4.21805
 20
-9.57846
 30
0.0
 10
-4.21805
 20
-9.57846
 30
0.0
 10
-4.19735
 20
-9.4801
 30
0.0
 10
-4.19735
 20
-9.4801
 30
0.0
 10
-4.19735
 20
-9.4801
 30
0.0
 10
-4.19735
 20
-9.4801
 30
0.0
 10
-4.16636
 20
-9.4801
 30
0.0
 10
-4.16636
 20
-9.4801
 30
0.0
 10
-4.16636
 20
-9.4801
 30
0.0
 10
-4.16636
 20
-9.4801
 30
0.0
 10
-4.2191
 20
-9.73262
 30
0.0
 10
-4.2191
 20
-9.73262
 30
0.0
 10
-4.2191
 20
-9.73262
 30
0.0
 10
-4.2191
 20
-9.73262
 30
0.0
 10
-4.24785
 20
-9.73262
 30
0.0
 10
-4.24785
 20
-9.73262
 30
0.0
 10
-4.24785
 20
-9.73262
 30
0.0
 10
-4.24785
 20
-9.73262
 30
0.0
 10
-4.24233
 20
-9.7061
 30
0.0
 10
-4.24233
 20
-9.7061
 30
0.0
  0
SPLINE
  5
AA
330
1F
100
AcDbEntity
  8
Layer 1
 62
   230
100
AcDbSpline
210
0.0
220
0.0
230
1.0
 70
    11
 71
     3
 72
    48
 73
    44
 74
     0
 42
0.0000000001
 43
0.0000000001
 40
0.0
 40
0.0
 40
0.0
 40
0.0
 40
0.0833333333333333
 40
0.0833333333333333
 40
0.0833333333333333
 40
0.0833333333333333
 40
0.1666666666666667
 40
0.1666666666666667
 40
0.1666666666666667
 40
0.1666666666666667
 40
0.25
 40
0.25
 40
0.25
 40
0.25
 40
0.3333333333333333
 40
0.3333333333333333
 40
0.3333333333333333
 40
0.3333333333333333
 40
0.4166666666666667
 40
0.4166666666666667
 40
0.4166666666666667
 40
0.4166666666666667
 40
0.5
 40
0.5
 40
0.5
 40
0.5
 40
0.5833333333333334
 40
0.5833333333333334
 40
0.5833333333333334
 40
0.5833333333333334
 40
0.6666666666666666
 40
0.6666666666666666
 40
0.6666666666666666
 40
0.6666666666666666
 40
0.75
 40
0.75
 40
0.75
 40
0.75
 40
0.8333333333333334
 40
0.8333333333333334
 40
0.8333333333333334
 40
0.8333333333333334
 40
1.0
 40
1.0
 40
1.0
 40
1.0
 10
-4.32776
 20
-9.65595
 30
0.0
 10
-4.32776
 20
-9.66871
 30
0.0
 10
-4.32652
 20
-9.67876
 30
0.0
 10
-4.32399
 20
-9.68611
 30
0.0
 10
-4.32399
 20
-9.68611
 30
0.0
 10
-4.32147
 20
-9.69346
 30
0.0
 10
-4.31717
 20
-9.69958
 30
0.0
 10
-4.31106
 20
-9.70446
 30
0.0
 10
-4.31106
 20
-9.70446
 30
0.0
 10
-4.305
 20
-9.70934
 30
0.0
 10
-4.29771
 20
-9.71175
 30
0.0
 10
-4.28919
 20
-9.71175
 30
0.0
 10
-4.28919
 20
-9.71175
 30
0.0
 10
-4.27508
 20
-9.71175
 30
0.0
 10
-4.26226
 20
-9.7044
 30
0.0
 10
-4.25079
 20
-9.6897
 30
0.0
 10
-4.25079
 20
-9.6897
 30
0.0
 10
-4.23539
 20
-9.67018
 30
0.0
 10
-4.22769
 20
-9.64607
 30
0.0
 10
-4.22769
 20
-9.61738
 30
0.0
 10
-4.22769
 20
-9.61738
 30
0.0
 10
-4.22769
 20
-9.60292
 30
0.0
 10
-4.23151
 20
-9.59163
 30
0.0
 10
-4.23904
 20
-9.58346
 30
0.0
 10
-4.23904
 20
-9.58346
 30
0.0
 10
-4.24662
 20
-9.57528
 30
0.0
 10
-4.25614
 20
-9.57123
 30
0.0
 10
-4.26767
 20
-9.57123
 30
0.0
 10
-4.26767
 20
-9.57123
 30
0.0
 10
-4.27514
 20
-9.57123
 30
0.0
 10
-4.2819
 20
-9.57287
 30
0.0
 10
-4.28807
 20
-9.57623
 30
0.0
 10
-4.28807
 20
-9.57623
 30
0.0
 10
-4.29419
 20
-9.57952
 30
0.0
 10
-4.3003
 20
-9.58522
 30
0.0
 10
-4.3063
 20
-9.59316
 30
0.0
 10
-4.3063
 20
-9.59316
 30
0.0
 10
-4.31235
 20
-9.60115
 30
0.0
 10
-4.31741
 20
-9.61133
 30
0.0
 10
-4.32158
 20
-9.62361
 30
0.0
 10
-4.32158
 20
-9.62361
 30
0.0
 10
-4.3257
 20
-9.63584
 30
0.0
 10
-4.32776
 20
-9.64666
 30
0.0
 10
-4.32776
 20
-9.65595
 30
0.0
  0
SPLINE
  5
AB
330
1F
100
AcDbEntity
  8
Layer 1
 62
   230
100
AcDbSpline
210
0.0
220
0.0
230
1.0
 70
    11
 71
     3
 72
    76
 73
    72
 74
     0
 42
0.0000000001
 43
0.0000000001
 40
0.0
 40
0.0
 40
0.0
 40
0.0
 40
0.0526315789473684
 40
0.0526315789473684
 40
0.0526315789473684
 40
0.0526315789473684
 40
0.1052631578947368
 40
0.1052631578947368
 40
0.1052631578947368
 40
0.1052631578947368
 40
0.1578947368421053
 40
0.1578947368421053
 40
0.1578947368421053
 40
0.1578947368421053
 40
0.2105263157894737
 40
0.2105263157894737
 40
0.2105263157894737
 40
0.2105263157894737
 40
0.2631578947368421
 40
0.2631578947368421
 40
0.2631578947368421
 40
0.2631578947368421
 40
0.3157894736842105
 40
0.3157894736842105
 40
0.3157894736842105
 40
0.3157894736842105
 40
0.3684210526315789
 40
0.3684210526315789
 40
0.3684210526315789
 40
0.3684210526315789
 40
0.4210526315789473
 40
0.4210526315789473
 40
0.4210526315789473
 40
0.4210526315789473
 40
0.4736842105263158
 40
0.4736842105263158
 40
0.4736842105263158
 40
0.4736842105263158
 40
0.5263157894736842
 40
0.5263157894736842
 40
0.5263157894736842
 40
0.5263157894736842
 40
0.5789473684210527
 40
0.5789473684210527
 40
0.5789473684210527
 40
0.5789473684210527
 40
0.631578947368421
 40
0.631578947368421
 40
0.631578947368421
 40
0.631578947368421
 40
0.6842105263157895
 40
0.6842105263157895
 40
0.6842105263157895
 40
0.6842105263157895
 40
0.7368421052631579
 40
0.7368421052631579
 40
0.7368421052631579
 40
0.7368421052631579
 40
0.7894736842105263
 40
0.7894736842105263
 40
0.7894736842105263
 40
0.7894736842105263
 40
0.8421052631578947
 40
0.8421052631578947
 40
0.8421052631578947
 40
0.8421052631578947
 40
0.8947368421052632
 40
0.8947368421052632
 40
0.8947368421052632
 40
0.8947368421052632
 40
1.0
 40
1.0
 40
1.0
 40
1.0
 10
-4.03513
 20
-9.67041
 30
0.0
 10
-4.03513
 20
-9.67041
 30
0.0
 10
-4.0048
 20
-9.67353
 30
0.0
 10
-4.0048
 20
-9.67353
 30
0.0
 10
-4.0048
 20
-9.67353
 30
0.0
 10
-4.00915
 20
-9.68858
 30
0.0
 10
-4.0192
 20
-9.70287
 30
0.0
 10
-4.03484
 20
-9.71645
 30
0.0
 10
-4.03484
 20
-9.71645
 30
0.0
 10
-4.05054
 20
-9.72997
 30
0.0
 10
-4.06923
 20
-9.73674
 30
0.0
 10
-4.09093
 20
-9.73674
 30
0.0
 10
-4.09093
 20
-9.73674
 30
0.0
 10
-4.10445
 20
-9.73674
 30
0.0
 10
-4.11692
 20
-9.73362
 30
0.0
 10
-4.12821
 20
-9.72739
 30
0.0
 10
-4.12821
 20
-9.72739
 30
0.0
 10
-4.13949
 20
-9.7211
 30
0.0
 10
-4.14814
 20
-9.71198
 30
0.0
 10
-4.15408
 20
-9.70005
 30
0.0
 10
-4.15408
 20
-9.70005
 30
0.0
 10
-4.15996
 20
-9.68811
 30
0.0
 10
-4.16289
 20
-9.67453
 30
0.0
 10
-4.16289
 20
-9.65924
 30
0.0
 10
-4.16289
 20
-9.65924
 30
0.0
 10
-4.16289
 20
-9.63925
 30
0.0
 10
-4.15831
 20
-9.61991
 30
0.0
 10
-4.14908
 20
-9.6011
 30
0.0
 10
-4.14908
 20
-9.6011
 30
0.0
 10
-4.13979
 20
-9.58234
 30
0.0
 10
-4.12785
 20
-9.56841
 30
0.0
 10
-4.11315
 20
-9.55923
 30
0.0
 10
-4.11315
 20
-9.55923
 30
0.0
 10
-4.09846
 20
-9.55012
 30
0.0
 10
-4.08252
 20
-9.54553
 30
0.0
 10
-4.06541
 20
-9.54553
 30
0.0
 10
-4.06541
 20
-9.54553
 30
0.0
 10
-4.0436
 20
-9.54553
 30
0.0
 10
-4.0262
 20
-9.55235
 30
0.0
 10
-4.01314
 20
-9.56588
 30
0.0
 10
-4.01314
 20
-9.56588
 30
0.0
 10
-4.00009
 20
-9.57946
 30
0.0
 10
-3.99362
 20
-9.59792
 30
0.0
 10
-3.99362
 20
-9.62132
 30
0.0
 10
-3.99362
 20
-9.62132
 30
0.0
 10
-3.99362
 20
-9.63032
 30
0.0
 10
-3.99439
 20
-9.63949
 30
0.0
 10
-3.99603
 20
-9.6489
 30
0.0
 10
-3.99603
 20
-9.6489
 30
0.0
 10
-3.99603
 20
-9.6489
 30
0.0
 10
-4.13073
 20
-9.6489
 30
0.0
 10
-4.13073
 20
-9.6489
 30
0.0
 10
-4.13073
 20
-9.6489
 30
0.0
 10
-4.13115
 20
-9.65248
 30
0.0
 10
-4.13138
 20
-9.65566
 30
0.0
 10
-4.13138
 20
-9.65854
 30
0.0
 10
-4.13138
 20
-9.65854
 30
0.0
 10
-4.13138
 20
-9.67565
 30
0.0
 10
-4.12744
 20
-9.6887
 30
0.0
 10
-4.11962
 20
-9.69775
 30
0.0
 10
-4.11962
 20
-9.69775
 30
0.0
 10
-4.11174
 20
-9.70675
 30
0.0
 10
-4.1021
 20
-9.71128
 30
0.0
 10
-4.09075
 20
-9.71128
 30
0.0
 10
-4.09075
 20
-9.71128
 30
0.0
 10
-4.08005
 20
-9.71128
 30
0.0
 10
-4.06959
 20
-9.70775
 30
0.0
 10
-4.05924
 20
-9.70075
 30
0.0
 10
-4.05924
 20
-9.70075
 30
0.0
 10
-4.04889
 20
-9.69376
 30
0.0
 10
-4.04084
 20
-9.68364
 30
0.0
 10
-4.03513
 20
-9.67041
 30
0.0
  0
SPLINE
  5
AC
330
1F
100
AcDbEntity
  8
Layer 1
 62
   230
100
AcDbSpline
210
0.0
220
0.0
230
1.0
 70
    11
 71
     3
 72
    28
 73
    24
 74
     0
 42
0.0000000001
 43
0.0000000001
 40
0.0
 40
0.0
 40
0.0
 40
0.0
 40
0.1428571428571428
 40
0.1428571428571428
 40
0.1428571428571428
 40
0.1428571428571428
 40
0.2857142857142857
 40
0.2857142857142857
 40
0.2857142857142857
 40
0.2857142857142857
 40
0.4285714285714285
 40
0.4285714285714285
 40
0.4285714285714285
 40
0.4285714285714285
 40
0.5714285714285714
 40
0.5714285714285714
 40
0.5714285714285714
 40
0.5714285714285714
 40
0.7142857142857143
 40
0.7142857142857143
 40
0.7142857142857143
 40
0.7142857142857143
 40
1.0
 40
1.0
 40
1.0
 40
1.0
 10
-4.12574
 20
-9.62514
 30
0.0
 10
-4.12574
 20
-9.62514
 30
0.0
 10
-4.02308
 20
-9.62514
 30
0.0
 10
-4.02308
 20
-9.62514
 30
0.0
 10
-4.02308
 20
-9.62514
 30
0.0
 10
-4.02296
 20
-9.62191
 30
0.0
 10
-4.0229
 20
-9.61962
 30
0.0
 10
-4.0229
 20
-9.61826
 30
0.0
 10
-4.0229
 20
-9.61826
 30
0.0
 10
-4.0229
 20
-9.60262
 30
0.0
 10
-4.02678
 20
-9.59063
 30
0.0
 10
-4.0346
 20
-9.58234
 30
0.0
 10
-4.0346
 20
-9.58234
 30
0.0
 10
-4.04242
 20
-9.57399
 30
0.0
 10
-4.05248
 20
-9.56982
 30
0.0
 10
-4.06477
 20
-9.56982
 30
0.0
 10
-4.06477
 20
-9.56982
 30
0.0
 10
-4.07805
 20
-9.56982
 30
0.0
 10
-4.09022
 20
-9.57446
 30
0.0
 10
-4.10116
 20
-9.58363
 30
0.0
 10
-4.10116
 20
-9.58363
 30
0.0
 10
-4.11215
 20
-9.59281
 30
0.0
 10
-4.12033
 20
-9.60662
 30
0.0
 10
-4.12574
 20
-9.62514
 30
0.0
  0
SPLINE
  5
AD
330
1F
100
AcDbEntity
  8
Layer 1
 62
   230
100
AcDbSpline
210
0.0
220
0.0
230
1.0
 70
    11
 71
     3
 72
   120
 73
   116
 74
     0
 42
0.0000000001
 43
0.0000000001
 40
0.0
 40
0.0
 40
0.0
 40
0.0
 40
0.0333333333333333
 40
0.0333333333333333
 40
0.0333333333333333
 40
0.0333333333333333
 40
0.0666666666666667
 40
0.0666666666666667
 40
0.0666666666666667
 40
0.0666666666666667
 40
0.1
 40
0.1
 40
0.1
 40
0.1
 40
0.1333333333333333
 40
0.1333333333333333
 40
0.1333333333333333
 40
0.1333333333333333
 40
0.1666666666666667
 40
0.1666666666666667
 40
0.1666666666666667
 40
0.1666666666666667
 40
0.2
 40
0.2
 40
0.2
 40
0.2
 40
0.2333333333333333
 40
0.2333333333333333
 40
0.2333333333333333
 40
0.2333333333333333
 40
0.2666666666666667
 40
0.2666666666666667
 40
0.2666666666666667
 40
0.2666666666666667
 40
0.3
 40
0.3
 40
0.3
 40
0.3
 40
0.3333333333333333
 40
0.3333333333333333
 40
0.3333333333333333
 40
0.3333333333333333
 40
0.3666666666666666
 40
0.3666666666666666
 40
0.3666666666666666
 40
0.3666666666666666
 40
0.4
 40
0.4
 40
0.4
 40
0.4
 40
0.4333333333333333
 40
0.4333333333333333
 40
0.4333333333333333
 40
0.4333333333333333
 40
0.4666666666666667
 40
0.4666666666666667
 40
0.4666666666666667
 40
0.4666666666666667
 40
0.5
 40
0.5
 40
0.5
 40
0.5
 40
0.5333333333333333
 40
0.5333333333333333
 40
0.5333333333333333
 40
0.5333333333333333
 40
0.5666666666666667
 40
0.5666666666666667
 40
0.5666666666666667
 40
0.5666666666666667
 40
0.6
 40
0.6
 40
0.6
 40
0.6
 40
0.6333333333333333
 40
0.6333333333333333
 40
0.6333333333333333
 40
0.6333333333333333
 40
0.6666666666666666
 40
0.6666666666666666
 40
0.6666666666666666
 40
0.6666666666666666
 40
0.7
 40
0.7
 40
0.7
 40
0.7
 40
0.7333333333333333
 40
0.7333333333333333
 40
0.7333333333333333
 40
0.7333333333333333
 40
0.7666666666666667
 40
0.7666666666666667
 40
0.7666666666666667
 40
0.7666666666666667
 40
0.8
 40
0.8
 40
0.8
 40
0.8
 40
0.8333333333333334
 40
0.8333333333333334
 40
0.8333333333333334
 40
0.8333333333333334
 40
0.8666666666666667
 40
0.8666666666666667
 40
0.8666666666666667
 40
0.8666666666666667
 40
0.9
 40
0.9
 40
0.9
 40
0.9
 40
0.9333333333333333
 40
0.9333333333333333
 40
0.9333333333333333
 40
0.9333333333333333
 40
1.0
 40
1.0
 40
1.0
 40
1.0
 10
-3.97034
 20
-9.67012
 30
0.0
 10
-3.97034
 20
-9.67012
 30
0.0
 10
-3.93918
 20
-9.66818
 30
0.0
 10
-3.93918
 20
-9.66818
 30
0.0
 10
-3.93918
 20
-9.66818
 30
0.0
 10
-3.93918
 20
-9.67718
 30
0.0
 10
-3.93777
 20
-9.68482
 30
0.0
 10
-3.935
 20
-9.69111
 30
0.0
 10
-3.935
 20
-9.69111
 30
0.0
 10
-3.9323
 20
-9.6974
 30
0.0
 10
-3.92718
 20
-9.70258
 30
0.0
 10
-3.91978
 20
-9.70663
 30
0.0
 10
-3.91978
 20
-9.70663
 30
0.0
 10
-3.91237
 20
-9.71063
 30
0.0
 10
-3.90373
 20
-9.71263
 30
0.0
 10
-3.89385
 20
-9.71263
 30
0.0
 10
-3.89385
 20
-9.71263
 30
0.0
 10
-3.88009
 20
-9.71263
 30
0.0
 10
-3.86974
 20
-9.70987
 30
0.0
 10
-3.86286
 20
-9.7044
 30
0.0
 10
-3.86286
 20
-9.7044
 30
0.0
 10
-3.85598
 20
-9.69887
 30
0.0
 10
-3.85251
 20
-9.69235
 30
0.0
 10
-3.85251
 20
-9.68488
 30
0.0
 10
-3.85251
 20
-9.68488
 30
0.0
 10
-3.85251
 20
-9.67953
 30
0.0
 10
-3.85457
 20
-9.67441
 30
0.0
 10
-3.85875
 20
-9.66959
 30
0.0
 10
-3.85875
 20
-9.66959
 30
0.0
 10
-3.86298
 20
-9.66477
 30
0.0
 10
-3.87333
 20
-9.65883
 30
0.0
 10
-3.88979
 20
-9.65178
 30
0.0
 10
-3.88979
 20
-9.65178
 30
0.0
 10
-3.90631
 20
-9.64466
 30
0.0
 10
-3.91684
 20
-9.63972
 30
0.0
 10
-3.92142
 20
-9.63684
 30
0.0
 10
-3.92142
 20
-9.63684
 30
0.0
 10
-3.92912
 20
-9.63214
 30
0.0
 10
-3.93489
 20
-9.62661
 30
0.0
 10
-3.93883
 20
-9.6202
 30
0.0
 10
-3.93883
 20
-9.6202
 30
0.0
 10
-3.94271
 20
-9.61385
 30
0.0
 10
-3.94465
 20
-9.6065
 30
0.0
 10
-3.94465
 20
-9.59827
 30
0.0
 10
-3.94465
 20
-9.59827
 30
0.0
 10
-3.94465
 20
-9.58381
 30
0.0
 10
-3.93894
 20
-9.5714
 30
0.0
 10
-3.92742
 20
-9.56106
 30
0.0
 10
-3.92742
 20
-9.56106
 30
0.0
 10
-3.91595
 20
-9.55071
 30
0.0
 10
-3.8999
 20
-9.54553
 30
0.0
 10
-3.87921
 20
-9.54553
 30
0.0
 10
-3.87921
 20
-9.54553
 30
0.0
 10
-3.85628
 20
-9.54553
 30
0.0
 10
-3.83876
 20
-9.55088
 30
0.0
 10
-3.82676
 20
-9.56147
 30
0.0
 10
-3.82676
 20
-9.56147
 30
0.0
 10
-3.81477
 20
-9.57211
 30
0.0
 10
-3.80854
 20
-9.5861
 30
0.0
 10
-3.80807
 20
-9.60345
 30
0.0
 10
-3.80807
 20
-9.60345
 30
0.0
 10
-3.80807
 20
-9.60345
 30
0.0
 10
-3.83858
 20
-9.60551
 30
0.0
 10
-3.83858
 20
-9.60551
 30
0.0
 10
-3.83858
 20
-9.60551
 30
0.0
 10
-3.83905
 20
-9.59445
 30
0.0
 10
-3.84293
 20
-9.58575
 30
0.0
 10
-3.85028
 20
-9.57934
 30
0.0
 10
-3.85028
 20
-9.57934
 30
0.0
 10
-3.85763
 20
-9.57287
 30
0.0
 10
-3.86804
 20
-9.5697
 30
0.0
 10
-3.88144
 20
-9.5697
 30
0.0
 10
-3.88144
 20
-9.5697
 30
0.0
 10
-3.89226
 20
-9.5697
 30
0.0
 10
-3.90061
 20
-9.57217
 30
0.0
 10
-3.90661
 20
-9.57705
 30
0.0
 10
-3.90661
 20
-9.57705
 30
0.0
 10
-3.9126
 20
-9.58199
 30
0.0
 10
-3.91554
 20
-9.58734
 30
0.0
 10
-3.91554
 20
-9.5931
 30
0.0
 10
-3.91554
 20
-9.5931
 30
0.0
 10
-3.91554
 20
-9.59886
 30
0.0
 10
-3.91296
 20
-9.60392
 30
0.0
 10
-3.90778
 20
-9.60827
 30
0.0
 10
-3.90778
 20
-9.60827
 30
0.0
 10
-3.90437
 20
-9.61127
 30
0.0
 10
-3.89549
 20
-9.61585
 30
0.0
 10
-3.88109
 20
-9.62203
 30
0.0
 10
-3.88109
 20
-9.62203
 30
0.0
 10
-3.85722
 20
-9.63237
 30
0.0
 10
-3.84217
 20
-9.64055
 30
0.0
 10
-3.83599
 20
-9.64649
 30
0.0
 10
-3.83599
 20
-9.64649
 30
0.0
 10
-3.82612
 20
-9.65601
 30
0.0
 10
-3.82118
 20
-9.66765
 30
0.0
 10
-3.82118
 20
-9.68129
 30
0.0
 10
-3.82118
 20
-9.68129
 30
0.0
 10
-3.82118
 20
-9.69035
 30
0.0
 10
-3.82394
 20
-9.69928
 30
0.0
 10
-3.82953
 20
-9.70798
 30
0.0
 10
-3.82953
 20
-9.70798
 30
0.0
 10
-3.83511
 20
-9.71669
 30
0.0
 10
-3.84358
 20
-9.72368
 30
0.0
 10
-3.85504
 20
-9.72892
 30
0.0
 10
-3.85504
 20
-9.72892
 30
0.0
 10
-3.86645
 20
-9.73415
 30
0.0
 10
-3.87991
 20
-9.73674
 30
0.0
 10
-3.89544
 20
-9.73674
 30
0.0
 10
-3.89544
 20
-9.73674
 30
0.0
 10
-3.91654
 20
-9.73674
 30
0.0
 10
-3.93453
 20
-9.7315
 30
0.0
 10
-3.94935
 20
-9.7211
 30
0.0
 10
-3.94935
 20
-9.7211
 30
0.0
 10
-3.96417
 20
-9.71063
 30
0.0
 10
-3.97116
 20
-9.69364
 30
0.0
 10
-3.97034
 20
-9.67012
 30
0.0
  0
SPLINE
  5
AE
330
1F
100
AcDbEntity
  8
Layer 1
 62
   230
100
AcDbSpline
210
0.0
220
0.0
230
1.0
 70
    11
 71
     3
 72
    20
 73
    16
 74
     0
 42
0.0000000001
 43
0.0000000001
 40
0.0
 40
0.0
 40
0.0
 40
0.0
 40
0.2
 40
0.2
 40
0.2
 40
0.2
 40
0.4
 40
0.4
 40
0.4
 40
0.4
 40
0.6
 40
0.6
 40
0.6
 40
0.6
 40
1.0
 40
1.0
 40
1.0
 40
1.0
 10
-3.75263
 20
-9.51543
 30
0.0
 10
-3.75263
 20
-9.51543
 30
0.0
 10
-3.74522
 20
-9.4801
 30
0.0
 10
-3.74522
 20
-9.4801
 30
0.0
 10
-3.74522
 20
-9.4801
 30
0.0
 10
-3.74522
 20
-9.4801
 30
0.0
 10
-3.71423
 20
-9.4801
 30
0.0
 10
-3.71423
 20
-9.4801
 30
0.0
 10
-3.71423
 20
-9.4801
 30
0.0
 10
-3.71423
 20
-9.4801
 30
0.0
 10
-3.72158
 20
-9.51543
 30
0.0
 10
-3.72158
 20
-9.51543
 30
0.0
 10
-3.72158
 20
-9.51543
 30
0.0
 10
-3.72158
 20
-9.51543
 30
0.0
 10
-3.75263
 20
-9.51543
 30
0.0
 10
-3.75263
 20
-9.51543
 30
0.0
  0
SPLINE
  5
AF
330
1F
100
AcDbEntity
  8
Layer 1
 62
   230
100
AcDbSpline
210
0.0
220
0.0
230
1.0
 70
    11
 71
     3
 72
    20
 73
    16
 74
     0
 42
0.0000000001
 43
0.0000000001
 40
0.0
 40
0.0
 40
0.0
 40
0.0
 40
0.2
 40
0.2
 40
0.2
 40
0.2
 40
0.4
 40
0.4
 40
0.4
 40
0.4
 40
0.6
 40
0.6
 40
0.6
 40
0.6
 40
1.0
 40
1.0
 40
1.0
 40
1.0
 10
-3.79808
 20
-9.73262
 30
0.0
 10
-3.79808
 20
-9.73262
 30
0.0
 10
-3.75986
 20
-9.54971
 30
0.0
 10
-3.75986
 20
-9.54971
 30
0.0
 10
-3.75986
 20
-9.54971
 30
0.0
 10
-3.75986
 20
-9.54971
 30
0.0
 10
-3.7287
 20
-9.54971
 30
0.0
 10
-3.7287
 20
-9.54971
 30
0.0
 10
-3.7287
 20
-9.54971
 30
0.0
 10
-3.7287
 20
-9.54971
 30
0.0
 10
-3.76691
 20
-9.73262
 30
0.0
 10
-3.76691
 20
-9.73262
 30
0.0
 10
-3.76691
 20
-9.73262
 30
0.0
 10
-3.76691
 20
-9.73262
 30
0.0
 10
-3.79808
 20
-9.73262
 30
0.0
 10
-3.79808
 20
-9.73262
 30
0.0
  0
SPLINE
  5
B0
330
1F
100
AcDbEntity
  8
Layer 1
 62
   230
100
AcDbSpline
210
0.0
220
0.0
230
1.0
 70
    11
 71
     3
 72
   100
 73
    96
 74
     0
 42
0.0000000001
 43
0.0000000001
 40
0.0
 40
0.0
 40
0.0
 40
0.0
 40
0.04
 40
0.04
 40
0.04
 40
0.04
 40
0.08
 40
0.08
 40
0.08
 40
0.08
 40
0.12
 40
0.12
 40
0.12
 40
0.12
 40
0.16
 40
0.16
 40
0.16
 40
0.16
 40
0.2
 40
0.2
 40
0.2
 40
0.2
 40
0.24
 40
0.24
 40
0.24
 40
0.24
 40
0.28
 40
0.28
 40
0.28
 40
0.28
 40
0.32
 40
0.32
 40
0.32
 40
0.32
 40
0.36
 40
0.36
 40
0.36
 40
0.36
 40
0.4
 40
0.4
 40
0.4
 40
0.4
 40
0.44
 40
0.44
 40
0.44
 40
0.44
 40
0.48
 40
0.48
 40
0.48
 40
0.48
 40
0.52
 40
0.52
 40
0.52
 40
0.52
 40
0.56
 40
0.56
 40
0.56
 40
0.56
 40
0.6
 40
0.6
 40
0.6
 40
0.6
 40
0.64
 40
0.64
 40
0.64
 40
0.64
 40
0.68
 40
0.68
 40
0.68
 40
0.68
 40
0.72
 40
0.72
 40
0.72
 40
0.72
 40
0.76
 40
0.76
 40
0.76
 40
0.76
 40
0.8
 40
0.8
 40
0.8
 40
0.8
 40
0.84
 40
0.84
 40
0.84
 40
0.84
 40
0.88
 40
0.88
 40
0.88
 40
0.88
 40
0.92
 40
0.92
 40
0.92
 40
0.92
 40
1.0
 40
1.0
 40
1.0
 40
1.0
 10
-3.72023
 20
-9.74914
 30
0.0
 10
-3.72023
 20
-9.74914
 30
0.0
 10
-3.68872
 20
-9.75208
 30
0.0
 10
-3.68872
 20
-9.75208
 30
0.0
 10
-3.68872
 20
-9.75208
 30
0.0
 10
-3.68896
 20
-9.7592
 30
0.0
 10
-3.68807
 20
-9.76455
 30
0.0
 10
-3.68613
 20
-9.76813
 30
0.0
 10
-3.68613
 20
-9.76813
 30
0.0
 10
-3.68419
 20
-9.77166
 30
0.0
 10
-3.68108
 20
-9.77442
 30
0.0
 10
-3.67684
 20
-9.77636
 30
0.0
 10
-3.67684
 20
-9.77636
 30
0.0
 10
-3.6712
 20
-9.77889
 30
0.0
 10
-3.66391
 20
-9.78019
 30
0.0
 10
-3.65497
 20
-9.78019
 30
0.0
 10
-3.65497
 20
-9.78019
 30
0.0
 10
-3.6361
 20
-9.78019
 30
0.0
 10
-3.62258
 20
-9.77531
 30
0.0
 10
-3.61429
 20
-9.76555
 30
0.0
 10
-3.61429
 20
-9.76555
 30
0.0
 10
-3.60894
 20
-9.75896
 30
0.0
 10
-3.60394
 20
-9.74473
 30
0.0
 10
-3.59929
 20
-9.7228
 30
0.0
 10
-3.59929
 20
-9.7228
 30
0.0
 10
-3.59929
 20
-9.7228
 30
0.0
 10
-3.59624
 20
-9.70798
 30
0.0
 10
-3.59624
 20
-9.70798
 30
0.0
 10
-3.59624
 20
-9.70798
 30
0.0
 10
-3.6124
 20
-9.72439
 30
0.0
 10
-3.62963
 20
-9.73262
 30
0.0
 10
-3.64792
 20
-9.73262
 30
0.0
 10
-3.64792
 20
-9.73262
 30
0.0
 10
-3.66638
 20
-9.73262
 30
0.0
 10
-3.68184
 20
-9.7258
 30
0.0
 10
-3.69431
 20
-9.71222
 30
0.0
 10
-3.69431
 20
-9.71222
 30
0.0
 10
-3.70677
 20
-9.69858
 30
0.0
 10
-3.713
 20
-9.67935
 30
0.0
 10
-3.713
 20
-9.65442
 30
0.0
 10
-3.713
 20
-9.65442
 30
0.0
 10
-3.713
 20
-9.63384
 30
0.0
 10
-3.70812
 20
-9.61497
 30
0.0
 10
-3.6983
 20
-9.59774
 30
0.0
 10
-3.6983
 20
-9.59774
 30
0.0
 10
-3.68849
 20
-9.58052
 30
0.0
 10
-3.67679
 20
-9.56752
 30
0.0
 10
-3.6632
 20
-9.5587
 30
0.0
 10
-3.6632
 20
-9.5587
 30
0.0
 10
-3.64968
 20
-9.54994
 30
0.0
 10
-3.63575
 20
-9.54553
 30
0.0
 10
-3.62134
 20
-9.54553
 30
0.0
 10
-3.62134
 20
-9.54553
 30
0.0
 10
-3.59735
 20
-9.54553
 30
0.0
 10
-3.57889
 20
-9.55694
 30
0.0
 10
-3.5659
 20
-9.57964
 30
0.0
 10
-3.5659
 20
-9.57964
 30
0.0
 10
-3.5659
 20
-9.57964
 30
0.0
 10
-3.55972
 20
-9.54971
 30
0.0
 10
-3.55972
 20
-9.54971
 30
0.0
 10
-3.55972
 20
-9.54971
 30
0.0
 10
-3.55972
 20
-9.54971
 30
0.0
 10
-3.53109
 20
-9.54971
 30
0.0
 10
-3.53109
 20
-9.54971
 30
0.0
 10
-3.53109
 20
-9.54971
 30
0.0
 10
-3.53109
 20
-9.54971
 30
0.0
 10
-3.56796
 20
-9.72627
 30
0.0
 10
-3.56796
 20
-9.72627
 30
0.0
 10
-3.56796
 20
-9.72627
 30
0.0
 10
-3.57201
 20
-9.74567
 30
0.0
 10
-3.57725
 20
-9.76078
 30
0.0
 10
-3.58383
 20
-9.77166
 30
0.0
 10
-3.58383
 20
-9.77166
 30
0.0
 10
-3.59036
 20
-9.78248
 30
0.0
 10
-3.59947
 20
-9.79089
 30
0.0
 10
-3.61111
 20
-9.79688
 30
0.0
 10
-3.61111
 20
-9.79688
 30
0.0
 10
-3.62275
 20
-9.80282
 30
0.0
 10
-3.63622
 20
-9.80582
 30
0.0
 10
-3.6515
 20
-9.80582
 30
0.0
 10
-3.6515
 20
-9.80582
 30
0.0
 10
-3.6662
 20
-9.80582
 30
0.0
 10
-3.67884
 20
-9.80394
 30
0.0
 10
-3.68949
 20
-9.80012
 30
0.0
 10
-3.68949
 20
-9.80012
 30
0.0
 10
-3.70013
 20
-9.79635
 30
0.0
 10
-3.70806
 20
-9.79083
 30
0.0
 10
-3.71324
 20
-9.78354
 30
0.0
 10
-3.71324
 20
-9.78354
 30
0.0
 10
-3.71847
 20
-9.77625
 30
0.0
 10
-3.72112
 20
-9.7679
 30
0.0
 10
-3.72112
 20
-9.75843
 30
0.0
 10
-3.72112
 20
-9.75843
 30
0.0
 10
-3.72112
 20
-9.75561
 30
0.0
 10
-3.72082
 20
-9.75249
 30
0.0
 10
-3.72023
 20
-9.74914
 30
0.0
  0
SPLINE
  5
B1
330
1F
100
AcDbEntity
  8
Layer 1
 62
   230
100
AcDbSpline
210
0.0
220
0.0
230
1.0
 70
    11
 71
     3
 72
    52
 73
    48
 74
     0
 42
0.0000000001
 43
0.0000000001
 40
0.0
 40
0.0
 40
0.0
 40
0.0
 40
0.0769230769230769
 40
0.0769230769230769
 40
0.0769230769230769
 40
0.0769230769230769
 40
0.1538461538461539
 40
0.1538461538461539
 40
0.1538461538461539
 40
0.1538461538461539
 40
0.2307692307692308
 40
0.2307692307692308
 40
0.2307692307692308
 40
0.2307692307692308
 40
0.3076923076923077
 40
0.3076923076923077
 40
0.3076923076923077
 40
0.3076923076923077
 40
0.3846153846153846
 40
0.3846153846153846
 40
0.3846153846153846
 40
0.3846153846153846
 40
0.4615384615384616
 40
0.4615384615384616
 40
0.4615384615384616
 40
0.4615384615384616
 40
0.5384615384615384
 40
0.5384615384615384
 40
0.5384615384615384
 40
0.5384615384615384
 40
0.6153846153846154
 40
0.6153846153846154
 40
0.6153846153846154
 40
0.6153846153846154
 40
0.6923076923076923
 40
0.6923076923076923
 40
0.6923076923076923
 40
0.6923076923076923
 40
0.7692307692307693
 40
0.7692307692307693
 40
0.7692307692307693
 40
0.7692307692307693
 40
0.8461538461538461
 40
0.8461538461538461
 40
0.8461538461538461
 40
0.8461538461538461
 40
1.0
 40
1.0
 40
1.0
 40
1.0
 10
-3.68131
 20
-9.65166
 30
0.0
 10
-3.68131
 20
-9.66418
 30
0.0
 10
-3.68008
 20
-9.67359
 30
0.0
 10
-3.67767
 20
-9.67994
 30
0.0
 10
-3.67767
 20
-9.67994
 30
0.0
 10
-3.67426
 20
-9.68876
 30
0.0
 10
-3.66932
 20
-9.69552
 30
0.0
 10
-3.66297
 20
-9.70017
 30
0.0
 10
-3.66297
 20
-9.70017
 30
0.0
 10
-3.65662
 20
-9.70481
 30
0.0
 10
-3.6495
 20
-9.7071
 30
0.0
 10
-3.64168
 20
-9.7071
 30
0.0
 10
-3.64168
 20
-9.7071
 30
0.0
 10
-3.63145
 20
-9.7071
 30
0.0
 10
-3.62128
 20
-9.70352
 30
0.0
 10
-3.61123
 20
-9.69634
 30
0.0
 10
-3.61123
 20
-9.69634
 30
0.0
 10
-3.60112
 20
-9.68917
 30
0.0
 10
-3.59294
 20
-9.67806
 30
0.0
 10
-3.58665
 20
-9.66301
 30
0.0
 10
-3.58665
 20
-9.66301
 30
0.0
 10
-3.58042
 20
-9.64801
 30
0.0
 10
-3.57725
 20
-9.63361
 30
0.0
 10
-3.57725
 20
-9.61997
 30
0.0
 10
-3.57725
 20
-9.61997
 30
0.0
 10
-3.57725
 20
-9.60492
 30
0.0
 10
-3.58142
 20
-9.59298
 30
0.0
 10
-3.58977
 20
-9.58405
 30
0.0
 10
-3.58977
 20
-9.58405
 30
0.0
 10
-3.59806
 20
-9.57517
 30
0.0
 10
-3.60841
 20
-9.5707
 30
0.0
 10
-3.62069
 20
-9.5707
 30
0.0
 10
-3.62069
 20
-9.5707
 30
0.0
 10
-3.62828
 20
-9.5707
 30
0.0
 10
-3.63563
 20
-9.57276
 30
0.0
 10
-3.64274
 20
-9.57681
 30
0.0
 10
-3.64274
 20
-9.57681
 30
0.0
 10
-3.64986
 20
-9.58087
 30
0.0
 10
-3.6565
 20
-9.5871
 30
0.0
 10
-3.66262
 20
-9.59539
 30
0.0
 10
-3.66262
 20
-9.59539
 30
0.0
 10
-3.66879
 20
-9.60374
 30
0.0
 10
-3.67343
 20
-9.61374
 30
0.0
 10
-3.67655
 20
-9.62532
 30
0.0
 10
-3.67655
 20
-9.62532
 30
0.0
 10
-3.67973
 20
-9.6369
 30
0.0
 10
-3.68131
 20
-9.64566
 30
0.0
 10
-3.68131
 20
-9.65166
 30
0.0
  0
SPLINE
  5
B2
330
1F
100
AcDbEntity
  8
Layer 1
 62
   230
100
AcDbSpline
210
0.0
220
0.0
230
1.0
 70
    11
 71
     3
 72
    76
 73
    72
 74
     0
 42
0.0000000001
 43
0.0000000001
 40
0.0
 40
0.0
 40
0.0
 40
0.0
 40
0.0526315789473684
 40
0.0526315789473684
 40
0.0526315789473684
 40
0.0526315789473684
 40
0.1052631578947368
 40
0.1052631578947368
 40
0.1052631578947368
 40
0.1052631578947368
 40
0.1578947368421053
 40
0.1578947368421053
 40
0.1578947368421053
 40
0.1578947368421053
 40
0.2105263157894737
 40
0.2105263157894737
 40
0.2105263157894737
 40
0.2105263157894737
 40
0.2631578947368421
 40
0.2631578947368421
 40
0.2631578947368421
 40
0.2631578947368421
 40
0.3157894736842105
 40
0.3157894736842105
 40
0.3157894736842105
 40
0.3157894736842105
 40
0.3684210526315789
 40
0.3684210526315789
 40
0.3684210526315789
 40
0.3684210526315789
 40
0.4210526315789473
 40
0.4210526315789473
 40
0.4210526315789473
 40
0.4210526315789473
 40
0.4736842105263158
 40
0.4736842105263158
 40
0.4736842105263158
 40
0.4736842105263158
 40
0.5263157894736842
 40
0.5263157894736842
 40
0.5263157894736842
 40
0.5263157894736842
 40
0.5789473684210527
 40
0.5789473684210527
 40
0.5789473684210527
 40
0.5789473684210527
 40
0.631578947368421
 40
0.631578947368421
 40
0.631578947368421
 40
0.631578947368421
 40
0.6842105263157895
 40
0.6842105263157895
 40
0.6842105263157895
 40
0.6842105263157895
 40
0.7368421052631579
 40
0.7368421052631579
 40
0.7368421052631579
 40
0.7368421052631579
 40
0.7894736842105263
 40
0.7894736842105263
 40
0.7894736842105263
 40
0.7894736842105263
 40
0.8421052631578947
 40
0.8421052631578947
 40
0.8421052631578947
 40
0.8421052631578947
 40
0.8947368421052632
 40
0.8947368421052632
 40
0.8947368421052632
 40
0.8947368421052632
 40
1.0
 40
1.0
 40
1.0
 40
1.0
 10
-3.52233
 20
-9.73262
 30
0.0
 10
-3.52233
 20
-9.73262
 30
0.0
 10
-3.48405
 20
-9.54971
 30
0.0
 10
-3.48405
 20
-9.54971
 30
0.0
 10
-3.48405
 20
-9.54971
 30
0.0
 10
-3.48405
 20
-9.54971
 30
0.0
 10
-3.45583
 20
-9.54971
 30
0.0
 10
-3.45583
 20
-9.54971
 30
0.0
 10
-3.45583
 20
-9.54971
 30
0.0
 10
-3.45583
 20
-9.54971
 30
0.0
 10
-3.46254
 20
-9.58158
 30
0.0
 10
-3.46254
 20
-9.58158
 30
0.0
 10
-3.46254
 20
-9.58158
 30
0.0
 10
-3.45025
 20
-9.56905
 30
0.0
 10
-3.43878
 20
-9.55988
 30
0.0
 10
-3.42808
 20
-9.55418
 30
0.0
 10
-3.42808
 20
-9.55418
 30
0.0
 10
-3.41744
 20
-9.54842
 30
0.0
 10
-3.4065
 20
-9.54553
 30
0.0
 10
-3.39539
 20
-9.54553
 30
0.0
 10
-3.39539
 20
-9.54553
 30
0.0
 10
-3.38058
 20
-9.54553
 30
0.0
 10
-3.36893
 20
-9.54959
 30
0.0
 10
-3.36047
 20
-9.55759
 30
0.0
 10
-3.36047
 20
-9.55759
 30
0.0
 10
-3.35206
 20
-9.56564
 30
0.0
 10
-3.34783
 20
-9.5764
 30
0.0
 10
-3.34783
 20
-9.58981
 30
0.0
 10
-3.34783
 20
-9.58981
 30
0.0
 10
-3.34783
 20
-9.59663
 30
0.0
 10
-3.3493
 20
-9.60727
 30
0.0
 10
-3.35229
 20
-9.62185
 30
0.0
 10
-3.35229
 20
-9.62185
 30
0.0
 10
-3.35229
 20
-9.62185
 30
0.0
 10
-3.37558
 20
-9.73262
 30
0.0
 10
-3.37558
 20
-9.73262
 30
0.0
 10
-3.37558
 20
-9.73262
 30
0.0
 10
-3.37558
 20
-9.73262
 30
0.0
 10
-3.40674
 20
-9.73262
 30
0.0
 10
-3.40674
 20
-9.73262
 30
0.0
 10
-3.40674
 20
-9.73262
 30
0.0
 10
-3.40674
 20
-9.73262
 30
0.0
 10
-3.38246
 20
-9.61668
 30
0.0
 10
-3.38246
 20
-9.61668
 30
0.0
 10
-3.38246
 20
-9.61668
 30
0.0
 10
-3.38005
 20
-9.60545
 30
0.0
 10
-3.37881
 20
-9.5971
 30
0.0
 10
-3.37881
 20
-9.59175
 30
0.0
 10
-3.37881
 20
-9.59175
 30
0.0
 10
-3.37881
 20
-9.58563
 30
0.0
 10
-3.38093
 20
-9.58069
 30
0.0
 10
-3.3851
 20
-9.57693
 30
0.0
 10
-3.3851
 20
-9.57693
 30
0.0
 10
-3.38934
 20
-9.57311
 30
0.0
 10
-3.39539
 20
-9.57123
 30
0.0
 10
-3.40327
 20
-9.57123
 30
0.0
 10
-3.40327
 20
-9.57123
 30
0.0
 10
-3.41926
 20
-9.57123
 30
0.0
 10
-3.43349
 20
-9.57699
 30
0.0
 10
-3.4459
 20
-9.58845
 30
0.0
 10
-3.4459
 20
-9.58845
 30
0.0
 10
-3.45836
 20
-9.59992
 30
0.0
 10
-3.46753
 20
-9.61962
 30
0.0
 10
-3.47341
 20
-9.64754
 30
0.0
 10
-3.47341
 20
-9.64754
 30
0.0
 10
-3.47341
 20
-9.64754
 30
0.0
 10
-3.49111
 20
-9.73262
 30
0.0
 10
-3.49111
 20
-9.73262
 30
0.0
 10
-3.49111
 20
-9.73262
 30
0.0
 10
-3.49111
 20
-9.73262
 30
0.0
 10
-3.52233
 20
-9.73262
 30
0.0
 10
-3.52233
 20
-9.73262
 30
0.0
  0
SPLINE
  5
B3
330
1F
100
AcDbEntity
  8
Layer 1
 62
   230
370
     9
100
AcDbSpline
210
0.0
220
0.0
230
1.0
 70
    11
 71
     3
 72
    32
 73
    28
 74
     0
 42
0.0000000001
 43
0.0000000001
 40
0.0
 40
0.0
 40
0.0
 40
0.0
 40
0.125
 40
0.125
 40
0.125
 40
0.125
 40
0.25
 40
0.25
 40
0.25
 40
0.25
 40
0.375
 40
0.375
 40
0.375
 40
0.375
 40
0.5
 40
0.5
 40
0.5
 40
0.5
 40
0.625
 40
0.625
 40
0.625
 40
0.625
 40
0.75
 40
0.75
 40
0.75
 40
0.75
 40
1.0
 40
1.0
 40
1.0
 40
1.0
 10
-3.66
 20
-5.97
 30
0.0
 10
-3.66
 20
-5.97
 30
0.0
 10
-4.5
 20
-5.23
 30
0.0
 10
-4.5
 20
-5.23
 30
0.0
 10
-4.5
 20
-5.23
 30
0.0
 10
-4.5
 20
-5.23
 30
0.0
 10
-5.34
 20
-5.97
 30
0.0
 10
-5.34
 20
-5.97
 30
0.0
 10
-5.34
 20
-5.97
 30
0.0
 10
-5.34
 20
-5.97
 30
0.0
 10
-4.82
 20
-5.87
 30
0.0
 10
-4.82
 20
-5.87
 30
0.0
 10
-4.82
 20
-5.87
 30
0.0
 10
-4.82
 20
-5.87
 30
0.0
 10
-4.82
 20
-6.77
 30
0.0
 10
-4.82
 20
-6.77
 30
0.0
 10
-4.82
 20
-6.77
 30
0.0
 10
-4.82
 20
-6.77
 30
0.0
 10
-4.18
 20
-6.77
 30
0.0
 10
-4.18
 20
-6.77
 30
0.0
 10
-4.18
 20
-6.77
 30
0.0
 10
-4.18
 20
-6.77
 30
0.0
 10
-4.18
 20
-5.87
 30
0.0
 10
-4.18
 20
-5.87
 30
0.0
 10
-4.18
 20
-5.87
 30
0.0
 10
-4.18
 20
-5.87
 30
0.0
 10
-3.66
 20
-5.97
 30
0.0
 10
-3.66
 20
-5.97
 30
0.0
  0
ENDSEC
  0
SECTION
  2
OBJECTS
  0
DICTIONARY
  5
C
330
0
100
AcDbDictionary
281
     1
  3
ACAD_GROUP
350
D
  3
ACAD_LAYOUT
350
1A
  3
ACAD_MATERIAL
350
3B
  3
ACAD_MLEADERSTYLE
350
D5
  3
ACAD_MLINESTYLE
350
17
  3
ACAD_PLOTSETTINGS
350
19
  3
ACAD_PLOTSTYLENAME
350
E
  3
ACAD_TABLESTYLE
350
D4
  3
ACAD_VISUALSTYLE
350
2A
  0
DICTIONARY
  5
D
102
{ACAD_REACTORS
330
C
102
}
330
C
100
AcDbDictionary
281
     1
  0
DICTIONARY
  5
1A
102
{ACAD_REACTORS
330
C
102
}
330
C
100
AcDbDictionary
281
     1
  3
Layout1
350
1E
  3
Layout2
350
26
  3
Model
350
22
  0
DICTIONARY
  5
3B
102
{ACAD_REACTORS
330
C
102
}
330
C
100
AcDbDictionary
281
     1
  3
ByBlock
350
3D
  3
ByLayer
350
3C
  3
Global
350
3E
  0
DICTIONARY
  5
D5
102
{ACAD_REACTORS
330
C
102
}
330
C
100
AcDbDictionary
281
     1
  0
DICTIONARY
  5
17
102
{ACAD_REACTORS
330
C
102
}
330
C
100
AcDbDictionary
281
     1
  3
Standard
350
18
  0
DICTIONARY
  5
19
102
{ACAD_REACTORS
330
C
102
}
330
C
100
AcDbDictionary
281
     1
  0
ACDBDICTIONARYWDFLT
  5
E
102
{ACAD_REACTORS
330
C
102
}
330
C
100
AcDbDictionary
281
     1
  3
Normal
350
F
100
AcDbDictionaryWithDefault
340
F
  0
DICTIONARY
  5
D4
102
{ACAD_REACTORS
330
C
102
}
330
C
100
AcDbDictionary
281
     1
  0
DICTIONARY
  5
2A
102
{ACAD_REACTORS
330
C
102
}
330
C
100
AcDbDictionary
281
     1
  3
2dWireframe
350
2F
  3
3D Hidden
350
31
  3
3dWireframe
350
30
  3
Basic
350
32
  3
Brighten
350
36
  3
ColorChange
350
3A
  3
Conceptual
350
34
  3
Dim
350
35
  3
Facepattern
350
39
  3
Flat
350
2B
  3
FlatWithEdges
350
2C
  3
Gouraud
350
2D
  3
GouraudWithEdges
350
2E
  3
Linepattern
350
38
  3
Realistic
350
33
  3
Thicken
350
37
  0
LAYOUT
  5
1E
102
{ACAD_REACTORS
330
1A
102
}
330
1A
100
AcDbPlotSettings
  1

  2
none_device
  4

  6

 40
0.0
 41
0.0
 42
0.0
 43
0.0
 44
0.0
 45
0.0
 46
0.0
 47
0.0
 48
0.0
 49
0.0
140
0.0
141
0.0
142
1.0
143
1.0
 70
   688
 72
     0
 73
     0
 74
     5
  7

 75
    16
 76
     0
 77
     2
 78
   300
147
1.0
148
0.0
149
0.0
100
AcDbLayout
  1
Layout1
 70
     1
 71
     1
 10
0.0
 20
0.0
 11
12.0
 21
9.0
 12
0.0
 22
0.0
 32
0.0
 14
1.000000000000000E+20
 24
1.000000000000000E+20
 34
1.000000000000000E+20
 15
-1.000000000000000E+20
 25
-1.000000000000000E+20
 35
-1.000000000000000E+20
146
0.0
 13
0.0
 23
0.0
 33
0.0
 16
1.0
 26
0.0
 36
0.0
 17
0.0
 27
1.0
 37
0.0
 76
     0
330
1B
  0
LAYOUT
  5
26
102
{ACAD_REACTORS
330
1A
102
}
330
1A
100
AcDbPlotSettings
  1

  2
none_device
  4

  6

 40
0.0
 41
0.0
 42
0.0
 43
0.0
 44
0.0
 45
0.0
 46
0.0
 47
0.0
 48
0.0
 49
0.0
140
0.0
141
0.0
142
1.0
143
1.0
 70
   688
 72
     0
 73
     0
 74
     5
  7

 75
    16
 76
     0
 77
     2
 78
   300
147
1.0
148
0.0
149
0.0
100
AcDbLayout
  1
Layout2
 70
     1
 71
     2
 10
0.0
 20
0.0
 11
0.0
 21
0.0
 12
0.0
 22
0.0
 32
0.0
 14
0.0
 24
0.0
 34
0.0
 15
0.0
 25
0.0
 35
0.0
146
0.0
 13
0.0
 23
0.0
 33
0.0
 16
1.0
 26
0.0
 36
0.0
 17
0.0
 27
1.0
 37
0.0
 76
     0
330
23
  0
LAYOUT
  5
22
102
{ACAD_REACTORS
330
1A
102
}
330
1A
100
AcDbPlotSettings
  1

  2
none_device
  4

  6

 40
0.0
 41
0.0
 42
0.0
 43
0.0
 44
0.0
 45
0.0
 46
0.0
 47
0.0
 48
0.0
 49
0.0
140
0.0
141
0.0
142
1.0
143
1.0
 70
  1712
 72
     0
 73
     0
 74
     0
  7

 75
     0
 76
     0
 77
     2
 78
   300
147
1.0
148
0.0
149
0.0
100
AcDbLayout
  1
Model
 70
     1
 71
     0
 10
0.0
 20
0.0
 11
12.0
 21
9.0
 12
0.0
 22
0.0
 32
0.0
 14
-8.24
 24
-12.59
 34
0.0
 15
-0.76
 25
-5.11
 35
0.0
146
0.0
 13
0.0
 23
0.0
 33
0.0
 16
1.0
 26
0.0
 36
0.0
 17
0.0
 27
1.0
 37
0.0
 76
     0
330
1F
331
29
  0
MATERIAL
  5
3D
102
{ACAD_REACTORS
330
3B
102
}
330
3B
100
AcDbMaterial
  1
ByBlock
 72
     1
 94
      127
  0
MATERIAL
  5
3C
102
{ACAD_REACTORS
330
3B
102
}
330
3B
100
AcDbMaterial
  1
ByLayer
 72
     1
 94
      127
  0
MATERIAL
  5
3E
102
{ACAD_REACTORS
330
3B
102
}
330
3B
100
AcDbMaterial
  1
Global
 72
     1
 94
      127
  0
MLINESTYLE
  5
18
102
{ACAD_REACTORS
330
17
102
}
330
17
100
AcDbMlineStyle
  2
Standard
 70
     0
  3

 62
   256
 51
90.0
 52
90.0
 71
     2
 49
0.5
 62
   256
  6
BYLAYER
 49
-0.5
 62
   256
  6
BYLAYER
  0
ACDBPLACEHOLDER
  5
F
102
{ACAD_REACTORS
330
E
102
}
330
E
  0
VISUALSTYLE
  5
2F
102
{ACAD_REACTORS
330
2A
102
}
102
{ACAD_XDICTIONARY
360
BC
102
}
330
2A
100
AcDbVisualStyle
  2
2dWireframe
 70
     4
 71
     0
 72
     2
 73
     0
 90
        0
 40
-0.6
 41
-30.0
 62
     5
 63
     7
421
 16777215
 74
     1
 91
        4
 64
     7
 65
   257
 75
     1
175
     1
 42
1.0
 92
        0
 66
   257
 43
1.0
 76
     1
 77
     6
 78
     2
 67
     7
 79
     5
170
     0
171
     0
290
     0
174
     0
 93
        1
 44
0.0
173
     0
291
     0
 45
0.0
  0
VISUALSTYLE
  5
31
102
{ACAD_REACTORS
330
2A
102
}
102
{ACAD_XDICTIONARY
360
C0
102
}
330
2A
100
AcDbVisualStyle
  2
3D Hidden
 70
     6
 71
     1
 72
     2
 73
     2
 90
        0
 40
-0.6
 41
-30.0
 62
     5
 63
     7
421
 16777215
 74
     2
 91
        2
 64
     7
 65
   257
 75
     2
175
     1
 42
40.0
 92
        0
 66
   257
 43
1.0
 76
     1
 77
     6
 78
     2
 67
     7
 79
     3
170
     0
171
     0
290
     0
174
     0
 93
        1
 44
0.0
173
     0
291
     0
 45
0.0
  0
VISUALSTYLE
  5
30
102
{ACAD_REACTORS
330
2A
102
}
102
{ACAD_XDICTIONARY
360
BE
102
}
330
2A
100
AcDbVisualStyle
  2
3dWireframe
 70
     5
 71
     0
 72
     2
 73
     0
 90
        0
 40
-0.6
 41
-30.0
 62
     5
 63
     7
421
 16777215
 74
     1
 91
        4
 64
     7
 65
   257
 75
     1
175
     1
 42
1.0
 92
        0
 66
   257
 43
1.0
 76
     1
 77
     6
 78
     2
 67
     7
 79
     5
170
     0
171
     0
290
     0
174
     0
 93
        1
 44
0.0
173
     0
291
     0
 45
0.0
  0
VISUALSTYLE
  5
32
102
{ACAD_REACTORS
330
2A
102
}
102
{ACAD_XDICTIONARY
360
C2
102
}
330
2A
100
AcDbVisualStyle
  2
Basic
 70
     7
 71
     1
 72
     0
 73
     1
 90
        0
 40
-0.6
 41
-30.0
 62
     5
 63
     7
421
 16777215
 74
     0
 91
        4
 64
     7
 65
   257
 75
     1
175
     1
 42
1.0
 92
        8
 66
     7
 43
1.0
 76
     1
 77
     6
 78
     2
 67
     7
 79
     5
170
     0
171
     0
290
     0
174
     0
 93
        1
 44
0.0
173
     0
291
     1
 45
0.0
  0
VISUALSTYLE
  5
36
102
{ACAD_REACTORS
330
2A
102
}
102
{ACAD_XDICTIONARY
360
CA
102
}
330
2A
100
AcDbVisualStyle
  2
Brighten
 70
    12
 71
     2
 72
     2
 73
     0
 90
        0
 40
-0.6
 41
-30.0
 62
     5
 63
     7
421
 16777215
 74
     1
 91
        4
 64
     7
 65
   257
 75
     1
175
     1
 42
1.0
 92
        8
 66
     7
 43
1.0
 76
     1
 77
     6
 78
     2
 67
     7
 79
     5
170
     0
171
     0
290
     0
174
     0
 93
        1
 44
50.0
173
     0
291
     1
 45
0.0
  0
VISUALSTYLE
  5
3A
102
{ACAD_REACTORS
330
2A
102
}
102
{ACAD_XDICTIONARY
360
D2
102
}
330
2A
100
AcDbVisualStyle
  2
ColorChange
 70
    16
 71
     2
 72
     2
 73
     3
 90
        0
 40
-0.6
 41
-30.0
 62
     5
 63
     8
421
  8421504
 74
     1
 91
        4
 64
     7
 65
   257
 75
     1
175
     1
 42
1.0
 92
        8
 66
     8
424
  8421504
 43
1.0
 76
     1
 77
     6
 78
     2
 67
     7
 79
     5
170
     0
171
     0
290
     0
174
     0
 93
        1
 44
0.0
173
     0
291
     1
 45
0.0
  0
VISUALSTYLE
  5
34
102
{ACAD_REACTORS
330
2A
102
}
102
{ACAD_XDICTIONARY
360
C6
102
}
330
2A
100
AcDbVisualStyle
  2
Conceptual
 70
     9
 71
     3
 72
     2
 73
     0
 90
        0
 40
-0.6
 41
-30.0
 62
     5
 63
     7
421
 16777215
 74
     2
 91
        2
 64
     7
 65
   257
 75
     1
175
     1
 42
40.0
 92
        8
 66
     7
 43
1.0
 76
     1
 77
     6
 78
     2
 67
     7
 79
     3
170
     0
171
     0
290
     0
174
     0
 93
        1
 44
0.0
173
     0
291
     0
 45
0.0
  0
VISUALSTYLE
  5
35
102
{ACAD_REACTORS
330
2A
102
}
102
{ACAD_XDICTIONARY
360
C8
102
}
330
2A
100
AcDbVisualStyle
  2
Dim
 70
    11
 71
     2
 72
     2
 73
     0
 90
        0
 40
-0.6
 41
-30.0
 62
     5
 63
     7
421
 16777215
 74
     1
 91
        4
 64
     7
 65
   257
 75
     1
175
     1
 42
1.0
 92
        8
 66
     7
 43
1.0
 76
     1
 77
     6
 78
     2
 67
     7
 79
     5
170
     0
171
     0
290
     0
174
     0
 93
        1
 44
-50.0
173
     0
291
     1
 45
0.0
  0
VISUALSTYLE
  5
39
102
{ACAD_REACTORS
330
2A
102
}
102
{ACAD_XDICTIONARY
360
D0
102
}
330
2A
100
AcDbVisualStyle
  2
Facepattern
 70
    15
 71
     2
 72
     2
 73
     0
 90
        0
 40
-0.6
 41
-30.0
 62
     5
 63
     7
421
 16777215
 74
     1
 91
        4
 64
     7
 65
   257
 75
     1
175
     1
 42
1.0
 92
        8
 66
     7
 43
1.0
 76
     1
 77
     6
 78
     2
 67
     7
 79
     5
170
     0
171
     0
290
     0
174
     0
 93
        1
 44
0.0
173
     0
291
     1
 45
0.0
  0
VISUALSTYLE
  5
2B
102
{ACAD_REACTORS
330
2A
102
}
102
{ACAD_XDICTIONARY
360
B4
102
}
330
2A
100
AcDbVisualStyle
  2
Flat
 70
     0
 71
     2
 72
     1
 73
     1
 90
        2
 40
-0.6
 41
30.0
 62
     5
 63
     7
421
 16777215
 74
     0
 91
        4
 64
     7
 65
   257
 75
     1
175
     1
 42
1.0
 92
        8
 66
     7
 43
1.0
 76
     1
 77
     6
 78
     2
 67
     7
 79
     5
170
     0
171
     0
290
     0
174
     0
 93
       13
 44
0.0
173
     0
291
     1
 45
0.0
  0
VISUALSTYLE
  5
2C
102
{ACAD_REACTORS
330
2A
102
}
102
{ACAD_XDICTIONARY
360
B6
102
}
330
2A
100
AcDbVisualStyle
  2
FlatWithEdges
 70
     1
 71
     2
 72
     1
 73
     1
 90
        2
 40
-0.6
 41
30.0
 62
     5
 63
     7
421
 16777215
 74
     1
 91
        4
 64
     7
 65
   257
 75
     1
175
     1
 42
1.0
 92
        0
 66
   257
 43
1.0
 76
     1
 77
     6
 78
     2
 67
     7
 79
     5
170
     0
171
     0
290
     0
174
     0
 93
       13
 44
0.0
173
     0
291
     1
 45
0.0
  0
VISUALSTYLE
  5
2D
102
{ACAD_REACTORS
330
2A
102
}
102
{ACAD_XDICTIONARY
360
B8
102
}
330
2A
100
AcDbVisualStyle
  2
Gouraud
 70
     2
 71
     2
 72
     2
 73
     1
 90
        2
 40
-0.6
 41
30.0
 62
     5
 63
     7
421
 16777215
 74
     0
 91
        4
 64
     7
 65
   257
 75
     1
175
     1
 42
1.0
 92
        0
 66
     7
 43
1.0
 76
     1
 77
     6
 78
     2
 67
     7
 79
     5
170
     0
171
     0
290
     0
174
     0
 93
       13
 44
0.0
173
     0
291
     1
 45
0.0
  0
VISUALSTYLE
  5
2E
102
{ACAD_REACTORS
330
2A
102
}
102
{ACAD_XDICTIONARY
360
BA
102
}
330
2A
100
AcDbVisualStyle
  2
GouraudWithEdges
 70
     3
 71
     2
 72
     2
 73
     1
 90
        2
 40
-0.6
 41
30.0
 62
     5
 63
     7
421
 16777215
 74
     1
 91
        4
 64
     7
 65
   257
 75
     1
175
     1
 42
1.0
 92
        0
 66
   257
 43
1.0
 76
     1
 77
     6
 78
     2
 67
     7
 79
     5
170
     0
171
     0
290
     0
174
     0
 93
       13
 44
0.0
173
     0
291
     1
 45
0.0
  0
VISUALSTYLE
  5
38
102
{ACAD_REACTORS
330
2A
102
}
102
{ACAD_XDICTIONARY
360
CE
102
}
330
2A
100
AcDbVisualStyle
  2
Linepattern
 70
    14
 71
     2
 72
     2
 73
     0
 90
        0
 40
-0.6
 41
-30.0
 62
     5
 63
     7
421
 16777215
 74
     1
 91
        4
 64
     7
 65
   257
 75
     7
175
     7
 42
1.0
 92
        8
 66
     7
 43
1.0
 76
     1
 77
     6
 78
     2
 67
     7
 79
     5
170
     0
171
     0
290
     0
174
     0
 93
        1
 44
0.0
173
     0
291
     1
 45
0.0
  0
VISUALSTYLE
  5
33
102
{ACAD_REACTORS
330
2A
102
}
102
{ACAD_XDICTIONARY
360
C4
102
}
330
2A
100
AcDbVisualStyle
  2
Realistic
 70
     8
 71
     2
 72
     2
 73
     0
 90
        0
 40
-0.6
 41
-30.0
 62
     5
 63
     7
421
 16777215
 74
     1
 91
        0
 64
     7
 65
   257
 75
     1
175
     1
 42
1.0
 92
        8
 66
     8
424
  7895160
 43
1.0
 76
     1
 77
     6
 78
     2
 67
     7
 79
     5
170
     0
171
     0
290
     0
174
     0
 93
       13
 44
0.0
173
     0
291
     0
 45
0.0
  0
VISUALSTYLE
  5
37
102
{ACAD_REACTORS
330
2A
102
}
102
{ACAD_XDICTIONARY
360
CC
102
}
330
2A
100
AcDbVisualStyle
  2
Thicken
 70
    13
 71
     2
 72
     2
 73
     0
 90
        0
 40
-0.6
 41
-30.0
 62
     5
 63
     7
421
 16777215
 74
     1
 91
        4
 64
     7
 65
   257
 75
     1
175
     1
 42
1.0
 92
       12
 66
     7
 43
1.0
 76
     1
 77
     6
 78
     2
 67
     7
 79
     5
170
     0
171
     0
290
     0
174
     0
 93
        1
 44
0.0
173
     0
291
     1
 45
0.0
  0
DICTIONARY
  5
BC
330
2F
100
AcDbDictionary
280
     1
281
     1
  3
ACAD_XREC_ROUNDTRIP
360
BD
  0
DICTIONARY
  5
C0
330
31
100
AcDbDictionary
280
     1
281
     1
  3
ACAD_XREC_ROUNDTRIP
360
C1
  0
DICTIONARY
  5
BE
330
30
100
AcDbDictionary
280
     1
281
     1
  3
ACAD_XREC_ROUNDTRIP
360
BF
  0
DICTIONARY
  5
C2
330
32
100
AcDbDictionary
280
     1
281
     1
  3
ACAD_XREC_ROUNDTRIP
360
C3
  0
DICTIONARY
  5
CA
330
36
100
AcDbDictionary
280
     1
281
     1
  3
ACAD_XREC_ROUNDTRIP
360
CB
  0
DICTIONARY
  5
D2
330
3A
100
AcDbDictionary
280
     1
281
     1
  3
ACAD_XREC_ROUNDTRIP
360
D3
  0
DICTIONARY
  5
C6
330
34
100
AcDbDictionary
280
     1
281
     1
  3
ACAD_XREC_ROUNDTRIP
360
C7
  0
DICTIONARY
  5
C8
330
35
100
AcDbDictionary
280
     1
281
     1
  3
ACAD_XREC_ROUNDTRIP
360
C9
  0
DICTIONARY
  5
D0
330
39
100
AcDbDictionary
280
     1
281
     1
  3
ACAD_XREC_ROUNDTRIP
360
D1
  0
DICTIONARY
  5
B4
330
2B
100
AcDbDictionary
280
     1
281
     1
  3
ACAD_XREC_ROUNDTRIP
360
B5
  0
DICTIONARY
  5
B6
330
2C
100
AcDbDictionary
280
     1
281
     1
  3
ACAD_XREC_ROUNDTRIP
360
B7
  0
DICTIONARY
  5
B8
330
2D
100
AcDbDictionary
280
     1
281
     1
  3
ACAD_XREC_ROUNDTRIP
360
B9
  0
DICTIONARY
  5
BA
330
2E
100
AcDbDictionary
280
     1
281
     1
  3
ACAD_XREC_ROUNDTRIP
360
BB
  0
DICTIONARY
  5
CE
330
38
100
AcDbDictionary
280
     1
281
     1
  3
ACAD_XREC_ROUNDTRIP
360
CF
  0
DICTIONARY
  5
C4
330
33
100
AcDbDictionary
280
     1
281
     1
  3
ACAD_XREC_ROUNDTRIP
360
C5
  0
DICTIONARY
  5
CC
330
37
100
AcDbDictionary
280
     1
281
     1
  3
ACAD_XREC_ROUNDTRIP
360
CD
  0
XRECORD
  5
BD
102
{ACAD_REACTORS
330
BC
102
}
330
BC
100
AcDbXrecord
280
     1
102
RTVSPropertyOp0
 70
     1
102
RTVSPropertyOp1
 70
     1
102
RTVSPropertyOp2
 70
     1
102
RTVSPropertyOp3
 70
     1
102
RTVSPropertyOp4
 70
     1
102
RTVSPropertyOp5
 70
     1
102
RTVSPropertyOp6
 70
     1
102
RTVSPropertyOp7
 70
     1
102
RTVSPropertyOp8
 70
     1
102
RTVSPropertyOp9
 70
     1
102
RTVSPropertyOp10
 70
     1
102
RTVSPropertyOp11
 70
     1
102
RTVSPropertyOp12
 70
     1
102
RTVSPropertyOp13
 70
     1
102
RTVSPropertyOp14
 70
     1
102
RTVSPropertyOp15
 70
     1
102
RTVSPropertyOp16
 70
     1
102
RTVSPropertyOp17
 70
     1
102
RTVSPropertyOp18
 70
     1
102
RTVSPropertyOp19
 70
     1
102
RTVSPropertyOp20
 70
     1
102
RTVSPropertyOp21
 70
     1
102
RTVSPropertyOp22
 70
     1
102
RTVSPropertyOp23
 70
     1
102
RTVSPropertyOp24
 70
     1
102
RTVSPropertyOp25
 70
     1
102
RTVSPropertyOp26
 70
     1
102
RTVSPropertyOp27
 70
     1
  0
XRECORD
  5
C1
102
{ACAD_REACTORS
330
C0
102
}
330
C0
100
AcDbXrecord
280
     1
102
RTVSPropertyOp0
 70
     1
102
RTVSPropertyOp1
 70
     1
102
RTVSPropertyOp2
 70
     1
102
RTVSPropertyOp3
 70
     1
102
RTVSPropertyOp4
 70
     1
102
RTVSPropertyOp5
 70
     1
102
RTVSPropertyOp6
 70
     1
102
RTVSPropertyOp7
 70
     1
102
RTVSPropertyOp8
 70
     1
102
RTVSPropertyOp9
 70
     1
102
RTVSPropertyOp10
 70
     1
102
RTVSPropertyOp11
 70
     1
102
RTVSPropertyOp12
 70
     1
102
RTVSPropertyOp13
 70
     1
102
RTVSPropertyOp14
 70
     1
102
RTVSPropertyOp15
 70
     1
102
RTVSPropertyOp16
 70
     1
102
RTVSPropertyOp17
 70
     1
102
RTVSPropertyOp18
 70
     1
102
RTVSPropertyOp19
 70
     1
102
RTVSPropertyOp20
 70
     1
102
RTVSPropertyOp21
 70
     1
102
RTVSPropertyOp22
 70
     1
102
RTVSPropertyOp23
 70
     1
102
RTVSPropertyOp24
 70
     1
102
RTVSPropertyOp25
 70
     1
102
RTVSPropertyOp26
 70
     1
102
RTVSPropertyOp27
 70
     1
  0
XRECORD
  5
BF
102
{ACAD_REACTORS
330
BE
102
}
330
BE
100
AcDbXrecord
280
     1
102
RTVSPropertyOp0
 70
     1
102
RTVSPropertyOp1
 70
     1
102
RTVSPropertyOp2
 70
     1
102
RTVSPropertyOp3
 70
     1
102
RTVSPropertyOp4
 70
     1
102
RTVSPropertyOp5
 70
     1
102
RTVSPropertyOp6
 70
     1
102
RTVSPropertyOp7
 70
     1
102
RTVSPropertyOp8
 70
     1
102
RTVSPropertyOp9
 70
     1
102
RTVSPropertyOp10
 70
     1
102
RTVSPropertyOp11
 70
     1
102
RTVSPropertyOp12
 70
     1
102
RTVSPropertyOp13
 70
     1
102
RTVSPropertyOp14
 70
     1
102
RTVSPropertyOp15
 70
     1
102
RTVSPropertyOp16
 70
     1
102
RTVSPropertyOp17
 70
     1
102
RTVSPropertyOp18
 70
     1
102
RTVSPropertyOp19
 70
     1
102
RTVSPropertyOp20
 70
     1
102
RTVSPropertyOp21
 70
     1
102
RTVSPropertyOp22
 70
     1
102
RTVSPropertyOp23
 70
     1
102
RTVSPropertyOp24
 70
     1
102
RTVSPropertyOp25
 70
     1
102
RTVSPropertyOp26
 70
     1
102
RTVSPropertyOp27
 70
     1
  0
XRECORD
  5
C3
102
{ACAD_REACTORS
330
C2
102
}
330
C2
100
AcDbXrecord
280
     1
102
RTVSPropertyOp0
 70
     1
102
RTVSPropertyOp1
 70
     1
102
RTVSPropertyOp2
 70
     1
102
RTVSPropertyOp3
 70
     1
102
RTVSPropertyOp4
 70
     1
102
RTVSPropertyOp5
 70
     1
102
RTVSPropertyOp6
 70
     1
102
RTVSPropertyOp7
 70
     1
102
RTVSPropertyOp8
 70
     1
102
RTVSPropertyOp9
 70
     1
102
RTVSPropertyOp10
 70
     1
102
RTVSPropertyOp11
 70
     1
102
RTVSPropertyOp12
 70
     1
102
RTVSPropertyOp13
 70
     1
102
RTVSPropertyOp14
 70
     1
102
RTVSPropertyOp15
 70
     1
102
RTVSPropertyOp16
 70
     1
102
RTVSPropertyOp17
 70
     1
102
RTVSPropertyOp18
 70
     1
102
RTVSPropertyOp19
 70
     1
102
RTVSPropertyOp20
 70
     1
102
RTVSPropertyOp21
 70
     1
102
RTVSPropertyOp22
 70
     1
102
RTVSPropertyOp23
 70
     1
102
RTVSPropertyOp24
 70
     1
102
RTVSPropertyOp25
 70
     1
102
RTVSPropertyOp26
 70
     1
102
RTVSPropertyOp27
 70
     1
  0
XRECORD
  5
CB
102
{ACAD_REACTORS
330
CA
102
}
330
CA
100
AcDbXrecord
280
     1
102
RTVSPropertyOp0
 70
     1
102
RTVSPropertyOp1
 70
     1
102
RTVSPropertyOp2
 70
     1
102
RTVSPropertyOp3
 70
     1
102
RTVSPropertyOp4
 70
     1
102
RTVSPropertyOp5
 70
     1
102
RTVSPropertyOp6
 70
     1
102
RTVSPropertyOp7
 70
     1
102
RTVSPropertyOp8
 70
     1
102
RTVSPropertyOp9
 70
     1
102
RTVSPropertyOp10
 70
     1
102
RTVSPropertyOp11
 70
     1
102
RTVSPropertyOp12
 70
     1
102
RTVSPropertyOp13
 70
     1
102
RTVSPropertyOp14
 70
     1
102
RTVSPropertyOp15
 70
     1
102
RTVSPropertyOp16
 70
     1
102
RTVSPropertyOp17
 70
     1
102
RTVSPropertyOp18
 70
     1
102
RTVSPropertyOp19
 70
     1
102
RTVSPropertyOp20
 70
     1
102
RTVSPropertyOp21
 70
     1
102
RTVSPropertyOp22
 70
     1
102
RTVSPropertyOp23
 70
     1
102
RTVSPropertyOp24
 70
     1
102
RTVSPropertyOp25
 70
     1
102
RTVSPropertyOp26
 70
     1
102
RTVSPropertyOp27
 70
     1
  0
XRECORD
  5
D3
102
{ACAD_REACTORS
330
D2
102
}
330
D2
100
AcDbXrecord
280
     1
102
RTVSPropertyOp0
 70
     1
102
RTVSPropertyOp1
 70
     1
102
RTVSPropertyOp2
 70
     1
102
RTVSPropertyOp3
 70
     1
102
RTVSPropertyOp4
 70
     1
102
RTVSPropertyOp5
 70
     1
102
RTVSPropertyOp6
 70
     1
102
RTVSPropertyOp7
 70
     1
102
RTVSPropertyOp8
 70
     1
102
RTVSPropertyOp9
 70
     1
102
RTVSPropertyOp10
 70
     1
102
RTVSPropertyOp11
 70
     1
102
RTVSPropertyOp12
 70
     1
102
RTVSPropertyOp13
 70
     1
102
RTVSPropertyOp14
 70
     1
102
RTVSPropertyOp15
 70
     1
102
RTVSPropertyOp16
 70
     1
102
RTVSPropertyOp17
 70
     1
102
RTVSPropertyOp18
 70
     1
102
RTVSPropertyOp19
 70
     1
102
RTVSPropertyOp20
 70
     1
102
RTVSPropertyOp21
 70
     1
102
RTVSPropertyOp22
 70
     1
102
RTVSPropertyOp23
 70
     1
102
RTVSPropertyOp24
 70
     1
102
RTVSPropertyOp25
 70
     1
102
RTVSPropertyOp26
 70
     1
102
RTVSPropertyOp27
 70
     1
  0
XRECORD
  5
C7
102
{ACAD_REACTORS
330
C6
102
}
330
C6
100
AcDbXrecord
280
     1
102
RTVSPropertyOp0
 70
     1
102
RTVSPropertyOp1
 70
     1
102
RTVSPropertyOp2
 70
     1
102
RTVSPropertyOp3
 70
     1
102
RTVSPropertyOp4
 70
     1
102
RTVSPropertyOp5
 70
     1
102
RTVSPropertyOp6
 70
     1
102
RTVSPropertyOp7
 70
     1
102
RTVSPropertyOp8
 70
     1
102
RTVSPropertyOp9
 70
     1
102
RTVSPropertyOp10
 70
     1
102
RTVSPropertyOp11
 70
     1
102
RTVSPropertyOp12
 70
     1
102
RTVSPropertyOp13
 70
     1
102
RTVSPropertyOp14
 70
     1
102
RTVSPropertyOp15
 70
     1
102
RTVSPropertyOp16
 70
     1
102
RTVSPropertyOp17
 70
     1
102
RTVSPropertyOp18
 70
     1
102
RTVSPropertyOp19
 70
     1
102
RTVSPropertyOp20
 70
     1
102
RTVSPropertyOp21
 70
     1
102
RTVSPropertyOp22
 70
     1
102
RTVSPropertyOp23
 70
     1
102
RTVSPropertyOp24
 70
     1
102
RTVSPropertyOp25
 70
     1
102
RTVSPropertyOp26
 70
     1
102
RTVSPropertyOp27
 70
     1
  0
XRECORD
  5
C9
102
{ACAD_REACTORS
330
C8
102
}
330
C8
100
AcDbXrecord
280
     1
102
RTVSPropertyOp0
 70
     1
102
RTVSPropertyOp1
 70
     1
102
RTVSPropertyOp2
 70
     1
102
RTVSPropertyOp3
 70
     1
102
RTVSPropertyOp4
 70
     1
102
RTVSPropertyOp5
 70
     1
102
RTVSPropertyOp6
 70
     1
102
RTVSPropertyOp7
 70
     1
102
RTVSPropertyOp8
 70
     1
102
RTVSPropertyOp9
 70
     1
102
RTVSPropertyOp10
 70
     1
102
RTVSPropertyOp11
 70
     1
102
RTVSPropertyOp12
 70
     1
102
RTVSPropertyOp13
 70
     1
102
RTVSPropertyOp14
 70
     1
102
RTVSPropertyOp15
 70
     1
102
RTVSPropertyOp16
 70
     1
102
RTVSPropertyOp17
 70
     1
102
RTVSPropertyOp18
 70
     1
102
RTVSPropertyOp19
 70
     1
102
RTVSPropertyOp20
 70
     1
102
RTVSPropertyOp21
 70
     1
102
RTVSPropertyOp22
 70
     1
102
RTVSPropertyOp23
 70
     1
102
RTVSPropertyOp24
 70
     1
102
RTVSPropertyOp25
 70
     1
102
RTVSPropertyOp26
 70
     1
102
RTVSPropertyOp27
 70
     1
  0
XRECORD
  5
D1
102
{ACAD_REACTORS
330
D0
102
}
330
D0
100
AcDbXrecord
280
     1
102
RTVSPropertyOp0
 70
     1
102
RTVSPropertyOp1
 70
     1
102
RTVSPropertyOp2
 70
     1
102
RTVSPropertyOp3
 70
     1
102
RTVSPropertyOp4
 70
     1
102
RTVSPropertyOp5
 70
     1
102
RTVSPropertyOp6
 70
     1
102
RTVSPropertyOp7
 70
     1
102
RTVSPropertyOp8
 70
     1
102
RTVSPropertyOp9
 70
     1
102
RTVSPropertyOp10
 70
     1
102
RTVSPropertyOp11
 70
     1
102
RTVSPropertyOp12
 70
     1
102
RTVSPropertyOp13
 70
     1
102
RTVSPropertyOp14
 70
     1
102
RTVSPropertyOp15
 70
     1
102
RTVSPropertyOp16
 70
     1
102
RTVSPropertyOp17
 70
     1
102
RTVSPropertyOp18
 70
     1
102
RTVSPropertyOp19
 70
     1
102
RTVSPropertyOp20
 70
     1
102
RTVSPropertyOp21
 70
     1
102
RTVSPropertyOp22
 70
     1
102
RTVSPropertyOp23
 70
     1
102
RTVSPropertyOp24
 70
     1
102
RTVSPropertyOp25
 70
     1
102
RTVSPropertyOp26
 70
     1
102
RTVSPropertyOp27
 70
     1
  0
XRECORD
  5
B5
102
{ACAD_REACTORS
330
B4
102
}
330
B4
100
AcDbXrecord
280
     1
102
RTVSPropertyOp0
 70
     1
102
RTVSPropertyOp1
 70
     1
102
RTVSPropertyOp2
 70
     1
102
RTVSPropertyOp3
 70
     1
102
RTVSPropertyOp4
 70
     1
102
RTVSPropertyOp5
 70
     1
102
RTVSPropertyOp6
 70
     1
102
RTVSPropertyOp7
 70
     1
102
RTVSPropertyOp8
 70
     1
102
RTVSPropertyOp9
 70
     1
102
RTVSPropertyOp10
 70
     1
102
RTVSPropertyOp11
 70
     1
102
RTVSPropertyOp12
 70
     1
102
RTVSPropertyOp13
 70
     1
102
RTVSPropertyOp14
 70
     1
102
RTVSPropertyOp15
 70
     1
102
RTVSPropertyOp16
 70
     1
102
RTVSPropertyOp17
 70
     1
102
RTVSPropertyOp18
 70
     1
102
RTVSPropertyOp19
 70
     1
102
RTVSPropertyOp20
 70
     1
102
RTVSPropertyOp21
 70
     1
102
RTVSPropertyOp22
 70
     1
102
RTVSPropertyOp23
 70
     1
102
RTVSPropertyOp24
 70
     1
102
RTVSPropertyOp25
 70
     1
102
RTVSPropertyOp26
 70
     1
102
RTVSPropertyOp27
 70
     1
  0
XRECORD
  5
B7
102
{ACAD_REACTORS
330
B6
102
}
330
B6
100
AcDbXrecord
280
     1
102
RTVSPropertyOp0
 70
     1
102
RTVSPropertyOp1
 70
     1
102
RTVSPropertyOp2
 70
     1
102
RTVSPropertyOp3
 70
     1
102
RTVSPropertyOp4
 70
     1
102
RTVSPropertyOp5
 70
     1
102
RTVSPropertyOp6
 70
     1
102
RTVSPropertyOp7
 70
     1
102
RTVSPropertyOp8
 70
     1
102
RTVSPropertyOp9
 70
     1
102
RTVSPropertyOp10
 70
     1
102
RTVSPropertyOp11
 70
     1
102
RTVSPropertyOp12
 70
     1
102
RTVSPropertyOp13
 70
     1
102
RTVSPropertyOp14
 70
     1
102
RTVSPropertyOp15
 70
     1
102
RTVSPropertyOp16
 70
     1
102
RTVSPropertyOp17
 70
     1
102
RTVSPropertyOp18
 70
     1
102
RTVSPropertyOp19
 70
     1
102
RTVSPropertyOp20
 70
     1
102
RTVSPropertyOp21
 70
     1
102
RTVSPropertyOp22
 70
     1
102
RTVSPropertyOp23
 70
     1
102
RTVSPropertyOp24
 70
     1
102
RTVSPropertyOp25
 70
     1
102
RTVSPropertyOp26
 70
     1
102
RTVSPropertyOp27
 70
     1
  0
XRECORD
  5
B9
102
{ACAD_REACTORS
330
B8
102
}
330
B8
100
AcDbXrecord
280
     1
102
RTVSPropertyOp0
 70
     1
102
RTVSPropertyOp1
 70
     1
102
RTVSPropertyOp2
 70
     1
102
RTVSPropertyOp3
 70
     1
102
RTVSPropertyOp4
 70
     1
102
RTVSPropertyOp5
 70
     1
102
RTVSPropertyOp6
 70
     1
102
RTVSPropertyOp7
 70
     1
102
RTVSPropertyOp8
 70
     1
102
RTVSPropertyOp9
 70
     1
102
RTVSPropertyOp10
 70
     1
102
RTVSPropertyOp11
 70
     1
102
RTVSPropertyOp12
 70
     1
102
RTVSPropertyOp13
 70
     1
102
RTVSPropertyOp14
 70
     1
102
RTVSPropertyOp15
 70
     1
102
RTVSPropertyOp16
 70
     1
102
RTVSPropertyOp17
 70
     1
102
RTVSPropertyOp18
 70
     1
102
RTVSPropertyOp19
 70
     1
102
RTVSPropertyOp20
 70
     1
102
RTVSPropertyOp21
 70
     1
102
RTVSPropertyOp22
 70
     1
102
RTVSPropertyOp23
 70
     1
102
RTVSPropertyOp24
 70
     1
102
RTVSPropertyOp25
 70
     1
102
RTVSPropertyOp26
 70
     1
102
RTVSPropertyOp27
 70
     1
  0
XRECORD
  5
BB
102
{ACAD_REACTORS
330
BA
102
}
330
BA
100
AcDbXrecord
280
     1
102
RTVSPropertyOp0
 70
     1
102
RTVSPropertyOp1
 70
     1
102
RTVSPropertyOp2
 70
     1
102
RTVSPropertyOp3
 70
     1
102
RTVSPropertyOp4
 70
     1
102
RTVSPropertyOp5
 70
     1
102
RTVSPropertyOp6
 70
     1
102
RTVSPropertyOp7
 70
     1
102
RTVSPropertyOp8
 70
     1
102
RTVSPropertyOp9
 70
     1
102
RTVSPropertyOp10
 70
     1
102
RTVSPropertyOp11
 70
     1
102
RTVSPropertyOp12
 70
     1
102
RTVSPropertyOp13
 70
     1
102
RTVSPropertyOp14
 70
     1
102
RTVSPropertyOp15
 70
     1
102
RTVSPropertyOp16
 70
     1
102
RTVSPropertyOp17
 70
     1
102
RTVSPropertyOp18
 70
     1
102
RTVSPropertyOp19
 70
     1
102
RTVSPropertyOp20
 70
     1
102
RTVSPropertyOp21
 70
     1
102
RTVSPropertyOp22
 70
     1
102
RTVSPropertyOp23
 70
     1
102
RTVSPropertyOp24
 70
     1
102
RTVSPropertyOp25
 70
     1
102
RTVSPropertyOp26
 70
     1
102
RTVSPropertyOp27
 70
     1
  0
XRECORD
  5
CF
102
{ACAD_REACTORS
330
CE
102
}
330
CE
100
AcDbXrecord
280
     1
102
RTVSPropertyOp0
 70
     1
102
RTVSPropertyOp1
 70
     1
102
RTVSPropertyOp2
 70
     1
102
RTVSPropertyOp3
 70
     1
102
RTVSPropertyOp4
 70
     1
102
RTVSPropertyOp5
 70
     1
102
RTVSPropertyOp6
 70
     1
102
RTVSPropertyOp7
 70
     1
102
RTVSPropertyOp8
 70
     1
102
RTVSPropertyOp9
 70
     1
102
RTVSPropertyOp10
 70
     1
102
RTVSPropertyOp11
 70
     1
102
RTVSPropertyOp12
 70
     1
102
RTVSPropertyOp13
 70
     1
102
RTVSPropertyOp14
 70
     1
102
RTVSPropertyOp15
 70
     1
102
RTVSPropertyOp16
 70
     1
102
RTVSPropertyOp17
 70
     1
102
RTVSPropertyOp18
 70
     1
102
RTVSPropertyOp19
 70
     1
102
RTVSPropertyOp20
 70
     1
102
RTVSPropertyOp21
 70
     1
102
RTVSPropertyOp22
 70
     1
102
RTVSPropertyOp23
 70
     1
102
RTVSPropertyOp24
 70
     1
102
RTVSPropertyOp25
 70
     1
102
RTVSPropertyOp26
 70
     1
102
RTVSPropertyOp27
 70
     1
  0
XRECORD
  5
C5
102
{ACAD_REACTORS
330
C4
102
}
330
C4
100
AcDbXrecord
280
     1
102
RTVSPropertyOp0
 70
     1
102
RTVSPropertyOp1
 70
     1
102
RTVSPropertyOp2
 70
     1
102
RTVSPropertyOp3
 70
     1
102
RTVSPropertyOp4
 70
     1
102
RTVSPropertyOp5
 70
     1
102
RTVSPropertyOp6
 70
     1
102
RTVSPropertyOp7
 70
     1
102
RTVSPropertyOp8
 70
     1
102
RTVSPropertyOp9
 70
     1
102
RTVSPropertyOp10
 70
     1
102
RTVSPropertyOp11
 70
     1
102
RTVSPropertyOp12
 70
     1
102
RTVSPropertyOp13
 70
     1
102
RTVSPropertyOp14
 70
     1
102
RTVSPropertyOp15
 70
     1
102
RTVSPropertyOp16
 70
     1
102
RTVSPropertyOp17
 70
     1
102
RTVSPropertyOp18
 70
     1
102
RTVSPropertyOp19
 70
     1
102
RTVSPropertyOp20
 70
     1
102
RTVSPropertyOp21
 70
     1
102
RTVSPropertyOp22
 70
     1
102
RTVSPropertyOp23
 70
     1
102
RTVSPropertyOp24
 70
     1
102
RTVSPropertyOp25
 70
     1
102
RTVSPropertyOp26
 70
     1
102
RTVSPropertyOp27
 70
     1
  0
XRECORD
  5
CD
102
{ACAD_REACTORS
330
CC
102
}
330
CC
100
AcDbXrecord
280
     1
102
RTVSPropertyOp0
 70
     1
102
RTVSPropertyOp1
 70
     1
102
RTVSPropertyOp2
 70
     1
102
RTVSPropertyOp3
 70
     1
102
RTVSPropertyOp4
 70
     1
102
RTVSPropertyOp5
 70
     1
102
RTVSPropertyOp6
 70
     1
102
RTVSPropertyOp7
 70
     1
102
RTVSPropertyOp8
 70
     1
102
RTVSPropertyOp9
 70
     1
102
RTVSPropertyOp10
 70
     1
102
RTVSPropertyOp11
 70
     1
102
RTVSPropertyOp12
 70
     1
102
RTVSPropertyOp13
 70
     1
102
RTVSPropertyOp14
 70
     1
102
RTVSPropertyOp15
 70
     1
102
RTVSPropertyOp16
 70
     1
102
RTVSPropertyOp17
 70
     1
102
RTVSPropertyOp18
 70
     1
102
RTVSPropertyOp19
 70
     1
102
RTVSPropertyOp20
 70
     1
102
RTVSPropertyOp21
 70
     1
102
RTVSPropertyOp22
 70
     1
102
RTVSPropertyOp23
 70
     1
102
RTVSPropertyOp24
 70
     1
102
RTVSPropertyOp25
 70
     1
102
RTVSPropertyOp26
 70
     1
102
RTVSPropertyOp27
 70
     1
  0
ENDSEC
  0
EOF
